Cifra Club

Aprenda

Slow Ride

Foghat

Tab de baixo: Principal
[Intro]

(0:18)
G|-18\--5-------|-------------------------------------------------------------|
D|----7--7-5-77-|-------------------------------------------------------------|
A|--------7-----|------5-3--------------5-3--------------5-3--------------5-3-|
E|--------------|-555\0-----55-555-555-5-----55-555-555-5-----55-555-555-5----|

G|-----------------------------------------------------------------------------|
D|-----------------------------------------------------------------------------|
A|--------------5-3--------------5-3--------------5-3--------------5-3---------|
E|-55-555-55555-----55-555-555-5-----55-555-555-5-----55-555-555-5-----55-5555-|


[Chorus]

(0:53)
   P S P   P  P   S P S P S P  P   P S  P  P     S P S P S   P
G|---------12-11\---2---2---2-|----------12-11\-----2---2-----5h6-|
D|-7---7----------4-------4---|-7---7-------------4-------4-------|
A|--------------------4-------|-----------------------4-----------|
E|---5------------------------|-------5---------------------------|

   P S P S P   P  S P S P S P  P S P S P  P   S P S P S P
G|---------12-11\---2---2---2-|---------12-11\---2---2---2-|
D|-7---7----------4-------4---|---7---7--------4-------4---|
A|--------------------4-------|--------------------4-------|
E|---5---5--------------------|-5---5----------------------|

(1:10)
G|-------------------------------------------------121314---19\----------|
D|-7-------5h7-----/15---------------------7-----------------------------|
A|--------------------15\--------------------------------------------5-3-|
E|------------------------55-555-555-5555-----------------------555-5----|

G|-----------------------------------------------------|
D|-----------------------------------------------------|
A|--------------5-3--------------5-3---------------5-3-|
E|-55-555-55---5-----55-5555-5-55-----55-555-5555-5----|

G|------------------------------|
D|------------5h7---5h7-5h7-5h7-|
A|------------------------------|
E|-555555-355-------------------|

G|------------------------------------------|
D|-5---5-5h7---5h7-5h7-5h7------------------|
A|---------------------------------------57-|
E|---5---------------------55555555-5-5-5---|

G|-----------------------------------------------------------|
D|------5h7---5h7-5h7-77------7---5h7-5h7-5h7-5h775----------|
A|-------------------------------------------------755-7-----|
E|-55--------------------55------------------------------8-5-|

Guitar Solo, no bass (1:59)

Duet (2:07)
G|----------------------------7--9------|
D|---------7----------------7--10--10-7-|
A|--4567----7\64-----4567---------------|
E|-5------------5---5-------------------|


[Chorus]

(2:15)
   P S P   P  P    S P S P S P   P S P   P  P      S P S P S  SP
G|----------12-11\---2---2---2-|----------12-11\-----2---2-----5h6-|
D|-7---7-----------4-------4---|---7---7-----------4-------4-------|
A|---------------------4-------|-----------------------4------4----|
E|---5---5---------------------|-5---5-----------------------------|

   P S P   P  P    S P S P S P  S P S    P  P  S P S P S P
G|----------12-11\---2---2---2-|---------12-11\---2---2---2-|
D|-7---7-----------4-------4---|---7---7--------4-------4---|
A|---------------------4-------|--------------------4-------|
E|---5---5---------------------|-5---5----------------------|

G|---------121314---19\------------------------------|
D|-7-------------------------------------------------|
A|----------------------------------------------5-3--|
E|----------------------555-55555555-5555-5555-5-----|

G|------------------------------------------|
D|------------------------------------------|
A|--------------5-3--------------5-3--------|
E|-55-555-5555-5----55-555-5555-5----55-555-|

G|------------------------------------------------------------------|
D|----5h7---5h7-5h7-5h7------5h7---5h7-5h7-5h7----------------------|
A|------------------------------------------------------------------|
E|-55---------------------55-------------------55-555-5-55555-5/12\-|

G|-----------------------------------------------------------|
D|------5h7---5h7-5h7-5h7------7---5h7-5h7-5h7-5h775---------|
A|--------------------------------------------------755-7----|
E|-55--------------------55------------------------------8-5-|

(3:20)
G|-17\5-5-5h7p5 ---------------------------------------|
D|-------7-----7-5-------------------------------------|
A|----------------7------------------------------------|
E|-----------------8-55-555-555-5553455-555-55555557h8-|

                         P
G|------------------------------------------------------------------------|
D|----------------------------------------------------------5-6-7---------|
A|-----------------------3--------------------------------------------6h7-|
E|-55-555-555-555555555-x--55555333444-55-555-555555-3455555------555-----|

G|----------------------------------------|
D|---7-7-77---7-7---------7-7-7-----7-----|
A|-----------------6-77-------------------|
E|-55-5-5---55-5-5------55-5-5-5---5----5-|


************************************

| x  Dead note
| h  Hammer-on
| p  Pull-off
| /  Slide up
| \  Slide down   

************************************
Composição de Dave Peverett
Colaboração e revisão:
  • Gabriel Leite
10.053 exibições

0 comentários

Ver todos os comentários
00:00 / 00:00
Outros vídeos desta música
Repetir Qualidade Automático
Outros vídeos desta música
00:00 / 00:00
Automático

Cifra Club Pro

Aproveite o Cifra Club com benefícios exclusivos e sem anúncios
Cifra Club Pro
Aproveite o Cifra Club com benefícios exclusivos e sem anúncios
OK