Cifra Club

Best Of You

Foo Fighters

Tab de baixo: Principal
[Refrão]

G|----------------------------------------------|
D|----------------------------------------------|
A|--4---2---0-----------------------------------|
E|----------------------------------------------|

[Verso]

[Parte 1 de 4] (2x)

G|----------------------------------------------|
D|--------2-2-2-4-4--------2-2-2-4-4------------|
A|--4-4-4------------4-4-4----------------------|
E|----------------------------------------------|

G|----------------------------------------------|
D|--------2-2-2-1-1--------2-2-2-1-1------------|
A|--0-0-0------------0-0-0----------------------|
E|----------------------------------------------|

[Parte 2 de 4]

G|----------------------------------------------|
D|--------2-2-2-4-4--------2-2-2-4-4------------|
A|--2-2-2------------2-2-2----------------------|
E|----------------------------------------------|

G|----------------------------------------------|
D|--------2-2-2-1-1--------2-2-2----------------|
A|--0-0-0------------0-0-0-------2-2------------|
E|----------------------------------------------|

[Parte 3 de 4] (2x)

G|----------------------------------------------|
D|--------2-2-2-4-4--------2-2-2-4-4------------|
A|--4-4-4------------4-4-4----------------------|
E|----------------------------------------------|

G|----------------------------------------------|
D|--------2-2-2-1-1--------2-2-2-1-1------------|
A|--0-0-0------------0-0-0----------------------|
E|----------------------------------------------|

[Parte 4 de 4]

G|----------------------------------------------|
D|--------2-2-2-4-4--------2-2-2-4-4------------|
A|--2-2-2------------2-2-2----------------------|
E|----------------------------------------------|

G|----------------------------------------------|
D|--------2-2-2-1-1--------2-2-2-1-1------------|
A|--0-0-0------------0-0-0----------------------|
E|----------------------------------------------|

[Refrão]

[Parte 1 de 2]

G|----------------------------------------------|
D|----------------------------------------------|
A|--4-4-4-4--4-4-4-4--2-2-2-2--2-2-2-2----------|
E|----------------------------------------------|

G|----------------------------------------------|
D|----------------------------------------------|
A|--0-0-0-0--0-0-0-0----------------------------|
E|--------------------2-2-2-2--2-0-2-0----------|

G|----------------------------------------------|
D|----------------------------------------------|
A|--4-4-4-4--4-4-4-4--2-2-2-2--2-2-2-2----------|
E|----------------------------------------------|

G|----------------------------------------------|
D|----------------------------------------------|
A|--0-0-0-0--0-0-0-0----------------------------|
E|--------------------2-2-2-0--2-2-0-2----------|

[Parte 2 de 2] (2x)

G|----------------------------------------------|
D|----------------------------------------------|
A|--4-4-4-4--4-4-4-4--2-2-2-2--2-2-2-2----------|
E|----------------------------------------------|

G|----------------------------------------------|
D|----------------------------------------------|
A|--0-0-0-0--0-0-0-0----------------------------|
E|--------------------2-2-2-2--2-2-2-2----------|

[Solo]

G|----------------------------------------------|
D|----------------------------------------------|
A|--4--4-4--4--4-4-4--4--4-4--4--4-4-4----------|
E|----------------------------------------------|

G|----------------------------------------------|
D|----------------------------------------------|
A|--0--0-0--0--0-0-0--0--0-0--0--0-2-2----------|
E|----------------------------------------------|

G|----------------------------------------------|
D|-------------2--------------------------------|
A|--4--4-4--4----4-2--4--4-4--4--2-0------------|
E|-----------------------------------4----------|

G|----------------------------------------------|
D|---------------------------------2------------|
A|----------------------------------------------|
E|--5--5-5--4--4-7\---2--2-2--0--0---0----------|

[Ponte]

[Parte 1 de 2]

G|---------2h4---4------------------------------|
D|----------------------------------------------|
A|--2--2-2-----2---2--2--2-2--2--2-2-2----------|
E|----------------------------------------------|

G|----------------------------------------------|
D|----------------------------------------------|
A|--0--0-0--0--0-0-0--0--0-0--0--x-x-x-0--------|
E|----------------------------------------------|

[Parte 2 de 2]

G|---------2h4---4------------------------------|
D|----------------------------------------------|
A|--2--2-2-----2---2--2--2-2--2--x-x-x-x-x-2----|
E|----------------------------------------------|

G|----------------------------------------------|
D|----------------------------------------------|
A|--0--0-0--0--0-0-0--0-0-0-0--0-0-0-0----------|
E|----------------------------------------------|

[Refrão]

[Parte 1 de 2]

G|----------------------------------------------|
D|----------------------------------------------|
A|--4-4-4-4--4-4-4-4--2-2-2-2--2-2-2-2----------|
E|----------------------------------------------|

G|----------------------------------------------|
D|----------------------------------------------|
A|--0-0-0-0--0-0-0-0----------------------------|
E|--------------------2-2-2-2--2-0-2-0----------|

G|----------------------------------------------|
D|----------------------------------------------|
A|--4-4-4-4--4-4-4-4--2-2-2-2--2-2-2-2----------|
E|----------------------------------------------|

G|----------------------------------------------|
D|----------------------------------------------|
A|--0-0-0-0--0-0-0-0----------------------------|
E|--------------------2-2-2-2--2-2-2-2----------|

[Parte 2 de 2]

G|----------------------------------------------|
D|----------------------------------------------|
A|--4-4-4-4--4-4-4-4/6-6-6-6--6-6-6-6-----------|
E|----------------------------------------------|

G|----------------------------------------------|
D|----------------------------------------------|
A|--7-7-7-7--7-7-7-7--9-9-9-9--9-9-9-7\---------|
E|----------------------------------------------|

G|----------------------------------------------|
D|----------------------------------------------|
A|--4-4-4-4--4-4-4-4/6-6-6-6--6-6-6-6-----------|
E|----------------------------------------------|

G|----------------------------------------------|
D|--------------------4-4-4-4--4-4-4-4----------|
A|--7-7-7-7--7-7-7-7----------------------------|
E|--------------------2-2-2-2--2-2-2-2----------|

[Verso]

G|----------------------------------------------|
D|----------------------------------------------|
A|--4-------------------------------------------|
E|----------------------------------------------|

G|----------------------------------------------|
D|----------------------------------------------|
A|--2-2-2-2--2-2-2-2--2-2-2-2--2-2-2-2----------|
E|----------------------------------------------|

G|----------------------------------------------|
D|----------------------------------------------|
A|--0-0-0-0--0-0-0-0--0-0-0-0--0-0-0-0----------|
E|----------------------------------------------|

G|----------------------------------------------|
D|----------------------------------------------|
A|--2-2-2-2--2-2-2-2--2-2-2-2--2-2-2-2----------|
E|----------------------------------------------|

G|----------------------------------------------|
D|----------------------------------------------|
A|--0-0-0-0--0-0-0-0--0-------------------------|
E|----------------------------------------------|

[Refrão]

[Parte 1 de 2]

G|----------------------------------------------|
D|----------------------------------------------|
A|--4-4-4-4--4-4-4-4--2-2-2-2--2-2-2-2----------|
E|----------------------------------------------|

G|----------------------------------------------|
D|----------------------------------------------|
A|--0-0-0-0--0-0-0-0----------------------------|
E|--------------------2-2-2-2--2-0-2-0----------|

G|----------------------------------------------|
D|------------------------4----4-2-1------------|
A|--4-4-4-4--4-4-4-4--2-2---2--------2----------|
E|----------------------------------------------|

G|----------------------------------------------|
D|------------------------4----4-2-1------------|
A|--0-0-0-0--0-0-0-0-----------------2----------|
E|--------------------2-2---2-------------------|

[Parte 2 de 2]

G|----------------------------------------------|
D|-------------------------------4-2------------|
A|--4-4-4-4--4-4-4-4--2-2-0-2--4-----4----------|
E|----------------------------------------------|

G|----------------------------------------------|
D|--2-2-2-2--2-2-2-2--4-4-4-4--4-4-4-4----------|
A|----------------------------------------------|
E|--------------------2-2-2-2--2-2-2-2----------|

G|----------------------------------------------|
D|----------------------------------------------|
A|--4-4-4-4--4-4-4-4--6-6-6-6--6-6-6-6----------|
E|----------------------------------------------|

G|----------------------------------------------|
D|--------------------4-4-4-4--4-4-4-4----------|
A|--7-7-7-7--7-7-7-7----------------------------|
E|--0-0-0-0--0-0-0-0--2-2-2-2--2-2-2-2----------|

[Final]

G|----------------------------------------------|
D|----------------------------------------------|
A|----------/16\-----/16\-----/16\-----/16\-----|
E|--/9\-/9\------/9\------/9\------/9\------/9\-|

G|----------------------------------------------|
D|-------------------9--------------------------|
A|--/16\-----/16\------11-10-9--------/16\------|
E|-------/9\-------9-----------12-11-------/9\--|
00:00 / 00:00
Outros vídeos desta música
Repetir
Outros vídeos desta música
Composição de Chris Shiflett / Dave Grohl / Nate Mendel / Taylor Hawkins
Colaboração e revisão:
  • Samuel Chacon
33.901 exibições

0 comentários

Ver todos os comentários

Entre para oCifra Club PRO

Tenha acesso a benefícios exclusivos no App e no Site

  • Chega de anúncios

  • Prioridade de compra em lançamentos

  • Mais recursos no app do Afinador

  • Atendimento Prioritário

  • Descontos nos produtos Cifra Club

  • Ajude a produzir mais conteúdo

00:00 / 00:00
Capítulos
  • Tocando a Música
  • Ensinando Primeiro Refrão
  • Ensinando Verso
  • Ensinando Refrão Principal
  • Ensinando Solo
  • Ensinando Ponte
  • Ensinando Terceiro Refrão
  • Ensinando Refrão Final
  • Ensinando Final

Cifra Club Pro

Aproveite o Cifra Club com benefícios exclusivos e sem anúncios
Cifra Club Pro
Aproveite o Cifra Club com benefícios exclusivos e sem anúncios
OK