Generator

Foo Fighters

Composição: Foo Fighters
Tom: A
[Introdução] E5  A5  E5
             A5  E5  F#5  E5
             A5  E5  F#5  D5

Guitarra Riff
E|-----------------------------------------------------|
B|-----------------------------------------------------|
G|-----------------------------------------------------|
D|-/6---6-4-------4-----4h6----------------------------|
A|------------7-------7--------------------------------|
E|-----------------------------------------------------|

E|-----------------------------------------------------|
B|-----------------------------------------------------|
G|-----------------------------------------------------|
D|-/6---6-4-------4-----4h6-4--------------------------|
A|------------7-------7-------7-7----------------------|
E|-----------------------------------------------------|

E|-----------------------------------------------------|
B|-----------------------------------------------------|
G|-----------------------------------------------------|
D|-/6---6-4-------4-----4h6-4--------------------------|
A|------------7-------7-------7-7----------------------|
E|-----------------------------------------------------|

E|-----------------------------------------------------|
B|-----------------------------------------------------|
G|----------------4---4h6------------------------------|
D|-/6---6-6---7-------------6---7-7--------------------|
A|-----------------------------------------------------|
E|-----------------------------------------------------|

E|-----------------------------------------------------|
B|-----------------------------------------------------|
G|-----------------------------------------------------|
D|-6-6-6-4-------4-----4h6-4---------------------------|
A|-----------7-------7-------7-7-----------------------|
E|-----------------------------------------------------|

E|-----------------------------------------------------|
B|-----------------------------------------------------|
G|----------------4---4h6------------------------------|
D|-/6---6-6---7-------------6---7-7-6~-----------------|
A|-----------------------------------------------------|
E|-----------------------------------------------------|


[Primeira Parte]

Guitarra 1
    A5
E|------------------------------------------|
B|------------------------------------------|
G|-----1----1----1----1----1----------------|
D|---2--------------------------------------|
A|-0------0----0----0----0------------------|
E|------------------------------------------|

    F#
E|------------------------------------------|
B|------------------------------------------|
G|-----1----1----1----1----1----------------|
D|---2--------------------------------------|
A|------------------------------------------|
E|-2------2----2----2----2------------------|

    D5
E|------------------------------------------|
B|------------------------------------------|
G|-----2----2-------------------------------|
D|---4-----------4----4----4----------------|
A|-5------5----5----5----5------------------|
E|------------------------------------------|

    Dm7
E|------------------------------------------|
B|------------------------------------------|
G|------------------------------------------|
D|-----3----3----3------5---5---------------|
A|-5------5----5------5---5---5-------------|
E|------------------------------------------|

Guitarra Base
    Dm7
E|------------------------------------------|
B|------------------------------------------|
G|-------5~---------------------------------|
D|---3--------------------------------------|
A|-5---5------------------------------------|
E|------------------------------------------|

 A5                       E5
Lately I'm getting better
 F#5                         E5
Wish I could stay sick with you
      D5
But there's too many egos
          Dm7
Left to bruise


Guitarra 1
    A5
E|------------------------------------------|
B|------------------------------------------|
G|-----1----1----1----1----1----------------|
D|---2--------------------------------------|
A|-0------0----0----0----0------------------|
E|------------------------------------------|

    F#5
E|------------------------------------------|
B|------------------------------------------|
G|-----1----1----1----1----1----------------|
D|---2--------------------------------------|
A|------------------------------------------|
E|-2------2----2----2----2------------------|

    D5
E|------------------------------------------|
B|------------------------------------------|
G|-----2----2-------------------------------|
D|---4-----------4----4----4----------------|
A|-5------5----5----5----5------------------|
E|------------------------------------------|

 A5
Call it sin
                      E5
You can call it whatever
 F#5                   E5
Eating deep inside of you
     D5
Well if it were me
                     (Riff 1)
It's all I'd ever do

Riff 1
E|-----------------------------------------------------|
B|-----------------------------------------------------|
G|-6-4-6b7-6-4~---6---4-6b7-6-4-4----------------------|
D|-----------------------------------------------------|
A|-----------------------------------------------------|
E|-----------------------------------------------------|


[Interlúdio] A5  E5  F#5  E5
             A5  E5  F#5  D5

Guitarra Riff
E|-----------------------------------------------------|
B|-----------------------------------------------------|
G|-----------------------------------------------------|
D|-/6-6-6-4-------4-----4h6-4--------------------------|
A|------------7-------7-------7-7----------------------|
E|-----------------------------------------------------|

E|-----------------------------------------------------|
B|-----------------------------------------------------|
G|----------------4---4h6------------------------------|
D|-/6---6-6---7-------------6---7-7--------------------|
A|-----------------------------------------------------|
E|-----------------------------------------------------|

E|-----------------------------------------------------|
B|-----------------------------------------------------|
G|-----------------------------------------------------|
D|-6-6-6-4-------4-----4h6-4---------------------------|
A|-----------7-------7-------7-7-----------------------|
E|-----------------------------------------------------|

E|-----------------------------------------------------|
B|-----------------------------------------------------|
G|----------------4---4h6------------------------------|
D|-/6---6-6---7-------------6---7-7-6~-----------------|
A|-----------------------------------------------------|
E|-----------------------------------------------------|

Guitarra 1
    A5
E|------------------------------------------|
B|------------------------------------------|
G|-----1----1----1----1----1----------------|
D|---2--------------------------------------|
A|-0------0----0----0----0------------------|
E|------------------------------------------|

    F#5
E|------------------------------------------|
B|------------------------------------------|
G|-----1----1----1----1----1----------------|
D|---2--------------------------------------|
A|------------------------------------------|
E|-2------2----2----2----2------------------|

    A5
E|------------------------------------------|
B|------------------------------------------|
G|-----1----1----1----1----1----------------|
D|---2--------------------------------------|
A|-0------0----0----0----0------------------|
E|------------------------------------------|

     F#5           D5
E|------------------------------------------|
B|------------------------------------------|
G|-----1----1--------2----4-----------------|
D|---2-------------4---------0--------------|
A|---------------5------5-------------------|
E|-2------2----2----------------------------|


[Segunda Parte]

Guitarra 1
    A5
E|------------------------------------------|
B|------------------------------------------|
G|-----1----1----1----1----1----------------|
D|---2--------------------------------------|
A|-0------0----0----0----0------------------|
E|------------------------------------------|

    F#5
E|------------------------------------------|
B|------------------------------------------|
G|-----1----1----1----1----1----------------|
D|---2--------------------------------------|
A|------------------------------------------|
E|-2------2----2----2----2------------------|

    D5
E|------------------------------------------|
B|------------------------------------------|
G|-----2----2-------------------------------|
D|---4-----------4----4----4----------------|
A|-5------5----5----5----5------------------|
E|------------------------------------------|

   Riff 1
E|------------------------------------------|
B|------------------------------------------|
G|-6-4-6b7-6-4~---6---4-6b7-6-4-4-----------|
D|------------------------------------------|
A|------------------------------------------|
E|------------------------------------------|

    A5
E|------------------------------------------|
B|------------------------------------------|
G|-----1----1----1----1----1----------------|
D|---2--------------------------------------|
A|-0------0----0----0----0------------------|
E|------------------------------------------|

    F#5
E|------------------------------------------|
B|------------------------------------------|
G|-----1----1----1----1----1----------------|
D|---2--------------------------------------|
A|------------------------------------------|
E|-2------2----2----2----2------------------|

    D5
E|------------------------------------------|
B|------------------------------------------|
G|-----2----2-------------------------------|
D|---4-----------4----4----4----------------|
A|-5------5----5----5----5------------------|
E|------------------------------------------|

   Riff 1
E|------------------------------------------|
B|------------------------------------------|
G|-6-4-6b7-6-4~---6---4-6b7-6-4-4-----------|
D|------------------------------------------|
A|------------------------------------------|
E|------------------------------------------|

  A5                     E5
Steal me now and forever
F#5                            E5
I'll steal something good for you
      D5                     (Riff 1)
The criminal in me is no one new

 A5                            E5
Till you find something better
  F#5                        E5
When there's nothing left to use
    D5
And everything starts going
        (Riff 1)
Down on you


[Refrão]

Guitarra Riff
E|-----------------------------------------------------|
B|-----------------------------------------------------|
G|-9-9-9-9-9-9-9-9-9-9-9-9-9-9-9-9---------------------|
D|-----------------------------------------------------|
A|-7-7-7-7-7-7-7-7-7-7-7-7-7-7-7-7---------------------|
E|-----------------------------------------------------|

E|-----------------------------------------------------|
B|-----------------------------------------------------|
G|-10-10-10-10-10-10-10-10-10-10-10-10-10-10-10-10-----|
D|-----------------------------------------------------|
A|--8--8--8--8--8--8--8--8--8--8--8--8--8--8--8--8-----|
E|-----------------------------------------------------|

E|-----------------------------------------------------|
B|-----------------------------------------------------|
G|-11-11-11-11-11-11-11-11-11-11-11-11-11-11-11-11-----|
D|-----------------------------------------------------|
A|--9--9--9--9--9--9--9--9--9--9--9--9--9--9--9--9-----|
E|-----------------------------------------------------|

E|-----------------------------------------------------|
B|-----------------------------------------------------|
G|-12---12/14---14/16---16/18---18\--------------------|
D|-----------------------------------------------------|
A|-10---10/12---12/14---14/16---16\--------------------|
E|-----------------------------------------------------|

    D7M
E|-5-----5-------5-------5-----------------------------|
B|-7---------7-------7-------7-------------------------|
G|-6-----------6-------6-------6-----------------------|
D|-7---7-------------------------7---------------------|
A|-5---5-----------------------------------------------|
E|-----------------------------------------------------|

    Dm7                     E5
E|-5-----5-------5-------------------------------------|
B|-6---------6-------6---------------------------------|
G|-5-----------5-------5-------------------------------|
D|-7---7-------------------2---2-----------------------|
A|-5---5-------------------2---2-----------------------|
E|-------------------------0---0-----------------------|


Guitarra 1
E|-----------------------------------------------------|
B|-----------------------------------------------------|
G|-----2----2----2----2----2---------------------------|
D|---2-------------------------------------------------|
A|-0------0----0----0----0-----------------------------|
E|-----------------------------------------------------|

E|-----------------------------------------------------|
B|-----------------------------------------------------|
G|-----2----2----2----2----2---------------------------|
D|---3----3----3----3----3-----------------------------|
A|-0---------------------------------------------------|
E|-----------------------------------------------------|

E|-----------------------------------------------------|
B|-----------------------------------------------------|
G|-----2----2----2----2----2---------------------------|
D|---4----4----4----4----4-----------------------------|
A|-0---------------------------------------------------|
E|-----------------------------------------------------|

E|-----------------------------------------------------|
B|-0---------------------------------------------------|
G|-4---------------------------------------------------|
D|-5---------------------------------------------------|
A|-0---------------------------------------------------|
E|-----------------------------------------------------|

    D7M
E|-5-----5-------5-------5-----------------------------|
B|-7---------7-------7-------7-------------------------|
G|-6-----------6-------6-------6-----------------------|
D|-7---7-------------------------7---------------------|
A|-5---5-----------------------------------------------|
E|-----------------------------------------------------|

    Dm7                     E5
E|-5-----5-------5-------------------------------------|
B|-6---------6-------6---------------------------------|
G|-5-----------5-------5-------------------------------|
D|-7---7-------------------2---2-----------------------|
A|-5---5-------------------2---2-----------------------|
E|-------------------------0---0-----------------------|

A5
I'm the generator

Firing whenever you quit

Yeah, whatever it is

You go out and it's on
                 D7M
Yeah, can't you hear my motored heart
 Dm7                        E5
You're the one that started it


[Interlúdio] A5  E5  F#5  E5
             A5  E5  F#5  D5

Guitarra Riff
E|-----------------------------------------------------|
B|-----------------------------------------------------|
G|-----------------------------------------------------|
D|-/6-6-6-4-------4-----4h6-4--------------------------|
A|------------7-------7-------7-7----------------------|
E|-----------------------------------------------------|

E|-----------------------------------------------------|
B|-----------------------------------------------------|
G|----------------4---4h6------------------------------|
D|-/6---6-6---7-------------6---7-7--------------------|
A|-----------------------------------------------------|
E|-----------------------------------------------------|

E|-----------------------------------------------------|
B|-----------------------------------------------------|
G|-----------------------------------------------------|
D|-6-6-6-4-------4-----4h6-4---------------------------|
A|-----------7-------7-------7-7-----------------------|
E|-----------------------------------------------------|

E|-----------------------------------------------------|
B|-----------------------------------------------------|
G|----------------4---4h6------------------------------|
D|-/6---6-6---7-------------6---7-7-6~-----------------|
A|-----------------------------------------------------|
E|-----------------------------------------------------|

Guitarra 1
    A5
E|------------------------------------------|
B|------------------------------------------|
G|-----1----1----1----1----1----------------|
D|---2--------------------------------------|
A|-0------0----0----0----0------------------|
E|------------------------------------------|

    F#5
E|------------------------------------------|
B|------------------------------------------|
G|-----1----1----1----1----1----------------|
D|---2--------------------------------------|
A|------------------------------------------|
E|-2------2----2----2----2------------------|

    A5
E|------------------------------------------|
B|------------------------------------------|
G|-----1----1----1----1----1----------------|
D|---2--------------------------------------|
A|-0------0----0----0----0------------------|
E|------------------------------------------|

    F#5           D5
E|------------------------------------------|
B|------------------------------------------|
G|-----1----1--------2----4-----------------|
D|---2-------------4---------0--------------|
A|---------------5------5-------------------|
E|-2------2----2----------------------------|


[Terceira Parte]

 A5                     E5
Send me out on a tether
  F#5
Swing it round
                E5
I'll spin your noose
     D5
You let it down
                      (Riff 1)
I'll hang around with you

 A5                          E5
Till you find someone better
  F#5                       E5
When there's no one left to use
    D5                        (Riff 1)
And everyone keeps going down


[Refrão]

A5
I'm the generator

Firing whenever you quit

Yeah, whatever it is

You go out and it's on
                 D7M
Yeah, can't you hear my motored heart
 Dm7
You're the one that started it


[Ponte] E5 (4x)
        (Riff 2 - 4x)

   Guitarra 1 - 12x
E|-------------0---------------------------------------|
B|-------------0---------------------------------------|
G|-9---9---x---9-------x-------x-x---------------------|
D|-9---9---x---9-------x-------x-x---------------------|
A|-7---7---x---7-------x-------x-x---------------------|
E|-----------------------------------------------------|

Guitarra Base
    E5
E|-----------------------------------------------------|
B|-----------------------------------------------------|
G|-9---9---x---x-x-x---x-x-x---9-9---------------------|
D|-9---9---x---x-x-x---x-x-x---9-9---------------------|
A|-7---7---x---x-x-x---x-x-x---7-7---------------------|
E|-----------------------------------------------------|

E|-----------------------------------------------------|
B|-----------------------------------------------------|
G|-9---9---x---x-x-x---x-x-x---9-9---------------------|
D|-9---9---x---x-x-x---x-x-x---9-9---------------------|
A|-7---7---x---x-x-x---x-x-x---7-7---------------------|
E|-----------------------------------------------------|

E|-----------------------------------------------------|
B|-----------------------------------------------------|
G|-9---9---x---x-x-x---x-x-x---9-9---------------------|
D|-9---9---x---x-x-x---x-x-x---9-9---------------------|
A|-7---7---x---x-x-x---x-x-x---7-7---------------------|
E|-----------------------------------------------------|

E|-----------------------------------------------------|
B|-----------------------------------------------------|
G|-9---9---x---x-x-x---x-x-x---x-x---------------------|
D|-9---9---x---x-x-x---x-x-x---x-x---------------------|
A|-7---7---x---x-x-x---x-x-x---x-x---------------------|
E|-----------------------------------------------------|

   Riff 2 - 4x
E|-----------------------------------------------------|
B|-----------------------------------------------------|
G|-----------------------------------------------------|
D|-----------------------------------------------------|
A|-/7-7---5---4---2---0---0-2-4------------------------|
E|----------------------4-------0----------------------|


[Refrão]

A5
I'm the generator

Firing whenever you quit

Yeah, whatever it is

You go out and it's on
                 D7M
Yeah, can't you hear my motored heart
 Dm7                        E5
You're the one that started it
A5
I'm the generator

I'm the generator

I'm the generator

I'm the generator

I'm the generator

I'm the generator you're on
                 D7M
Yeah, can't you hear my motored heart
 Dm7                        E5
You're the one that started it

[Final] A5  E5  A5  E5  A5

E|-----------------------------------------------------|
B|-----------------------------------------------------|
G|-----------------------------------------------------|
D|-/6-6-6-4-------4-----4h6-4--------------------------|
A|------------7-------7-------7-7----------------------|
E|-----------------------------------------------------|

E|-----------------------------------------------------|
B|-----------------------------------------------------|
G|--------------------------4---4----------------------|
D|-/6-6-6-4-------4-----4h6--------2-------------------|
A|------------7-------7------------2-------------------|
E|---------------------------------0-------------------|
Página 1 / 1

Letras e título
Acordes e artista

resetar configurações
OK