Cifra Club

I Should Have Known

Foo Fighters

Tab de baixo: Principal
 [     X3      ]
G|------------------|------------------------------------------------------|
D|--5-7-8-----------|------------5-5-5-------5-5-5-3-3-3-------------------|
A|--------8\-3--3--3|-3-3-5-6-6-6------6-6-6-------------3-3-3-3-3-3-3-3-3-|
E|------------------|------------------------------------------------------|

             [                          X2                              ]
G|---------|---------------------------------------------------------------|
D|---------|------------------------------------------------------1--------|
A|-3-3-3-3-|--------------------3--3-3-3-1-3--3-3-3-0-0-0-1-1-1-3--3-1-----|
E|---------|-3--3-3-3-1-3--3-3-3---------------------------------------1---|

  [                X2                  ]
G|--------------------------------------|
D|--------------------------------------|
A|---------8----------------------------|
E|-3--5--6---8--8-8--8-8-6-8--8-8--8-8--|

  [                                X2                                     ]
G|-----------------------------------------------------------------------------|
D|-----0-1--1-1--1-1-----------0-1--1-1--1-1-----------3--3-3--3-3-------------|
A|-3-3------------------------------------------------------------3--3-3-3-3---|
E|------------------3--1-3--3-3-------------3--1-3--3-3------------------------|

G|---------------------------------------|
D|---------------------------------------|
A|-3-3-3-3-3-3-3-3/-15-15-15-15-15-15-15-|   ( 2nd time only)
E|---------------------------------------|

  [                         X4                            ]
G|---------------------------------------------------------|
D|---------------------------------------------------------|
A|-------------------------8-8-8-8-------------------------|
E|-3-3-3-3-5-5-5-5-6-6-6-6---------8-8-8-8-8-8-8-8-8-8-8-8-|

  [                                X4                                    ]
G|-----------------------------------------------------------------------------|
D|-----0-1--1-1--1-1-----------0-1--1-1--1-1-----------3--3-3--3-3-------------|
A|-3-3------------------------------------------------------------3--3-3-3-3---|
E|------------------3--1-3--3-3-------------3--1-3--3-3------------------------|
Composição de Foo Fighters
Colaboração e revisão:
  • Filipe Menezes
958 exibições

0 comentários

Ver todos os comentários
00:00 / 00:00
Outros vídeos desta música
Repetir Qualidade Automático
Outros vídeos desta música
00:00 / 00:00
Automático

Cifra Club Pro

Aproveite o Cifra Club com benefícios exclusivos e sem anúncios
Cifra Club Pro
Aproveite o Cifra Club com benefícios exclusivos e sem anúncios
OK