Monkey Wrench

Foo Fighters

Composição de: Foo Fighters
tom: E
Afinação em D

[Intro]

E|-----------------------------------------------------------------------|
B|--7-7-5-5-4-4-----5-5-4-4----------------------------------------------|
G|--------------6-6---------6-6-4-4-6-6-4-4-----4-4-6-6------------------|
D|------------------------------------------6-6----------4-4--6b1/2-6-4--|
A|-----------------------------------------------------------------------|
E|-----------------------------------------------------------------------|

[Primeira Parte]

E|--------------------------------------------------------------------|
B|--------------------------------------------------------------------|
G|--4--4-4-4-4-4-4-4-4-4----------------------------------------------|
D|--4--4-4-4-4-4-4-4-4-4--4-4-4-4-2-2-2-2-2-2-2-2-2-2-2-2--0-2-0-2-0--|
A|--2--2-2-2-2-2-2-2-2-2--4-4-4-4-2-2-2-2-2-2-2-2-2-2-2-2--0-2-0-2-0--|
E|------------------------4-4-4-4-2-2-2-2-2-2-2-2-2-2-2-2--0-2-0-2-0--|
   
"What have we done with innocence..."

[Pré-Refrão]

E|------------------------------|
B|------------------------------|
G|------------------------------|
D|--2--2-2-0--2--2-2-0-2-0-2-0--|
A|--2--2-2-0--2--2-2-0-2-0-2-0--|
E|--2--2-2-0--2--2-2-0-2-0-2-0--|
 
"One in ten..."

[Refrão]

E|----------------------------------------|
B|----------------------------------------|
G|--4--4-4-4---------------------------5--|
D|--4--4-4-4--6--6-6--6-6-4-2---4-2-4--5--|
A|--2--2-2-2--6--6-6--6-6-4-2---4-2-4--3--|
E|------------6--6-6--6-6-4-2---4-2-4-----|
   
"Don't want to be your monkey wrench"

[Ponte]

Guitarra 1
E|------------------------------------------------------------|
B|------------------------------------------------------------|
G|------9-----------------------------------------------------|
D|--6-6-9-9--5-5-5-5-5-5-5--4-2-2-2-2-2-2-2--4-2-2-2-2-2-2-2--|
A|--6-6-7-9--5-5-5-5-5-5-5--4-2-2-2-2-2-2-2--4-2-2-2-2-2-2-2--|
E|--6-6---9--5-5-5-5-5-5-5--4-2-2-2-2-2-2-2--4-2-2-2-2-2-2-2--|
   
"Temper..."                                                 

Guitarra 2                                                    
E|--------------------------0-0-0-0-0-0-0-0--0-0-0-0-0-0-0-0--|
B|--------------------------0-0-0-0-0-0-0-0--0-0-0-0-0-0-0-0--|
G|--------------------------1-1-1-1-1-1-1-1--1-1-1-1-1-1-1-1--|
D|------------------------------------------------------------|
A|------------------------------------------------------------|
E|------------------------------------------------------------|

Guitarra 1
E|-----------------------------------------------------------------|
B|-----------------------------------------------------------------|
G|--4-4-4-4-4-4-4-4-4-4--------------------------------------------|
D|--4-4-4-4-4-4-4-4-4-4-4-4-4-4-2-2-2-2-2-2-2-2-2-2-2-2-0-2-0-2-0--|
A|--2-2-2-2-2-2-2-2-2-2-4-4-4-4-2-2-2-2-2-2-2-2-2-2-2-2-0-2-0-2-0--|
E|----------------------4-4-4-4-2-2-2-2-2-2-2-2-2-2-2-2-0-2-0-2-0--|

"One last thing before I quit..."                                   
                                                                    
Guitarra 2                                                           
E|-----------------------------------------------------------------|
B|-----------------------------------------------------------------|
G|--4-4-4-4-4-4-4-4-4-4--------------------------------------------|
D|--x-x-x-x-x-x-x-x-x-x--------------------------------------------|
A|--2-2-2-2-2-2-2-2-2-2--------------------------------------------|
E|-----------------------------------------------------------------|
Página 1 / 1

Letras e título
Acordes e artista

resetar configurações
OK