Cifra Club

Aprenda

My Hero

Foo Fighters

Cifra: Original (violão e guitarra)
Já pensou em usar uma coleção de roupas do Cifra Club? Responda as perguntas abaixo e nos ajude nessa missão! →
tom: E
(intro)

E|-----------------------------------0-0-0-0---0-0-0-0--||
B|-----------------------------------4-5-4-0---4-5-4-0--||
G|-----------------------------------------4---------4--||
D|------------------------------------------------------||
A|------------------4-4-4-4-4-4-4-4---------------------||
E|--0-0-0-0-0-0-0-0-------------------------------------||

(verse)

(guitarra 1)
E|--0-0-0-0-0-0-0-0------------------||
B|--0-0-0-0-0-0-0-0------------------||
G|--1-1-1-1-1-1-1-1-6-6-6-6-6-6-6-6--||
D|--2-2-2-2-2-2-2-2-6-6-6-6-6-6-6-6--||
A|--2-2-2-2-2-2-2-2-4-4-4-4-4-4-4-4--||
E|--0-0-0-0-0-0-0-0------------------||

(guitarra 2)
E|--0-0-0-0-0-0-0-0-0-0-0-0-0-0-0-0-0--||
B|--4-5-5-5-5-5-5-4-4-7-4-4-4-7-5-5-5--||
G|-------------------------------------||
D|-------------------------------------||
A|-------------------------------------||
E|-------------------------------------||

(refrão 2x) (oitavada) (as 2 guitarras juntas)
E|--------------------------------------|-------------------------------------|
B|--------------------------------------|-------------------------------------|
G|----------8-8-8-8-9-9-9-9-11-11-11-11-|---------8-8-8-8-9-9-9-9-11-11-11-11-|
D|--7-7-7-7-x-x-x-x-x-x-x-x-x--x--x--x--|-2-2-2-2-x-x-x-x-x-x-x-x-x--x--x--x--|
A|--7-7-7-7-6-6-6-6-7-7-7-7-9--9--9--9--|-2-2-2-2-6-6-6-6-7-7-7-7-9--9--9--9--|
E|--5-5-5-5-----------------------------|-0-0-0-0-----------------------------|

E|-----------------------------------------|--------------||
B|-----------------------------------------|--------------||
G|---------11-11-11-11-13-13-13-13-8-8-8-8-|--------------||
D|-2-2-2-2-x--x--x--x--x--x--x--x--x-x-x-x-|--------------||
A|-2-2-2-2-9--9--9--9--11-11-11-11-6-6-6-6-|-----4-2------||
E|-0-0-0-0---------------------------------|-2-2-----4-5--||

(interludio)
E|--0-----0-------0-----0----------||
B|--0-----0-------0-----0----------||
G|--1-----1---6---1-----1---6------||
D|--2-----2---6---2-----2---6---2--||
A|--2-----2---4---2-----2---4---2--||
E|--0-----0-------0-----0-------0--||
Composição de Foo Fighters
Colaboração e revisão:
  • Paulo Silva
22.001 exibições
  • Simplificar cifra
    • ½ Tom
    • A
    • Bb
    • B
    • C
    • Db
    • D
    • Eb
    • E
    • F
    • F#
    • G
    • Ab
  • Adicionar à lista

    0 comentários

    Ver todos os comentários
    00:00 / 00:00
    Outros vídeos desta música
    Repetir Qualidade Automático
    Outros vídeos desta música
    00:00 / 00:00
    Automático
    Capítulos
    • Início
    • Tocando a música
    • Configuração dos Efeitos
    • Acordes da Introdução
    • Tocando Introdução
    • Ensinando Introdução - Guitarra Solo
    • Ensinando Ritmo da Introdução - Guitarra Base
    • Ensinando Ritmo da Introdução - Guitarra Solo
    • Ensinando Riff de Passagem
    • Tocando Primeira Parte
    • Ensinando Primeira Parte - Guitarra Solo
    • Acordes do Refrão
    • Tocando Refrão
    • Ensinando Ritmo do Refrão - Guitarra Base
    • Ensinando Riff do Refrão - Guitarra Solo
    • Tocando Segunda Parte
    • Ensinando Passagem pra Segunda Parte
    • Ensinando Guitarra 3 (Refrão)
    • Tocando Interlúdio
    • Ensinando Interlúdio
    • Tocando Final
    • Encerramento

    Cifra Club Pro

    Aproveite o Cifra Club com benefícios exclusivos e sem anúncios
    Cifra Club Pro
    Aproveite o Cifra Club com benefícios exclusivos e sem anúncios
    OK