Cifra Club

Aprenda

My Hero

Foo Fighters

Tab de baixo: Versão 4
Já pensou em usar uma coleção de roupas do Cifra Club? Responda as perguntas abaixo e nos ajude nessa missão! →
Riff 1:
G:|-----------------------|
D:|-----------------------|
A:|-------2/44444---------|
E:|-00000-----------------|

Riff 2:
G:|-----------------------------|
D:|-----------------------------|
A:|-0000000000------------------|
E:|-----------0000000000--------|

Riff 3:
G:|--------------------|
D:|--------------------|
A:|----4-2-------------|
E:|--22---4-5----------|

Riff 4:
G:|--------------------------|
D:|--------------------------|
A:|--------4---------4-------|
E:|-0~--0~----0~--0~---0~~---|
Composição de Foo Fighters
Colaboração e revisão:
  • Matheus Maus
416 exibições

0 comentários

Ver todos os comentários
00:00 / 00:00
Outros vídeos desta música
Repetir Qualidade Automático
Outros vídeos desta música
00:00 / 00:00
Automático

Cifra Club Pro

Aproveite o Cifra Club com benefícios exclusivos e sem anúncios
Cifra Club Pro
Aproveite o Cifra Club com benefícios exclusivos e sem anúncios
OK