Outside

Foo Fighters

Composição de: Dave Grohl
[Intro]

G|----------------------------------------------------------------|
D|----------------------------------------------------------------|
A|----------------------------------------------------------------|
E|--5-5-5-8-8-8-8--0--0-3-0--0-3-0--5-5-5-8-8-8-8--0--0-3-0--0-0--|

[Refrão]

G|----------------------------------------------------------|
D|----------------------------------------------------------|
A|--5-5-5-5--5-5-5--5-5-5--5-5------------------------------|    
E|------------------------------5-5-5-5--5-5-5--5-5-5--5-5--|

G|----------------------------------------------------------|
D|----------------------------------------------------------|
A|------------------------------5-5-5-5--5-5-5--5-5--5---7--|
E|--0-0-0-0--0-0-0--0-0-0--0-0------------------------------|

G|----------------------------------------------------------|
D|----------------------------------------------------------|
A|----------------------------------------------------------|
E|--1-1-1-1--1-1-1--1-1-1--1-1--5-5-5-5--5-5-5--5-5-5--5-5--|

G|-------------------------------------------------------------|
D|-------------------------------------------------------------|
A|------------------------------5-5-5-5-5-5-5-5-5-5-5-5-5-5-5--|
E|--0-0-0-0--0-0-0--0-0-0--0-0---------------------------------|

[Primeira Parte]

G|----------------------------------------------------------------|
D|----------------------------------------------------------------|
A|----------------------------------------------------------------|
E|--5-5-5-8-8-8-8--0--0-3-0--0-3-0--5-5-5-8-8-8-8--0--0-3-0--0-0--|

[Refrão]

G|----------------------------------------------------------|
D|----------------------------------------------------------|
A|--5-5-5-5--5-5-5--5-5-5--5-5------------------------------|    
E|------------------------------5-5-5-5--5-5-5--5-5-5--5-5--|

G|----------------------------------------------------------|
D|----------------------------------------------------------|
A|------------------------------5-5-5-5--5-5-5--5-5--5---7--|
E|--0-0-0-0--0-0-0--0-0-0--0-0------------------------------|

G|----------------------------------------------------------|
D|----------------------------------------------------------|
A|----------------------------------------------------------|
E|--1-1-1-1--1-1-1--1-1-1--1-1--5-5-5-5--5-5-5--5-5-5--5-5--|

G|-------------------------------------------------------------|
D|-------------------------------------------------------------|
A|------------------------------5-5-5-5-5-5-5-5-5-5-5-5-5-5-5--|
E|--0-0-0-0--0-0-0--0-0-0--0-0---------------------------------|

[Ponte]

G|------------------------------------------------|
D|------------------------------------------------|   
A|--5-5-5-5--3-3-3-3--------5-5-5-5--3-3-3-3------|
E|-------------------3-5---------------------3-5--|

G|---------------------------------------|
D|---------------------------------------|
A|------------------5-5-5-5-3-3-3-3------|
E|--5-5-5-5-0-0-0-0-----------------3-5--|

G|-----------------------------------------------------------------|
D|-----------------------------------------------------------------|
A|------------------5-5-5-5-3-3-3-3--3-3-3-3--3-3-3-3--3-3-3-3-----|
E|--5-5-5-5-0-0-0-0-------------------------------------------3-5--|

G|-----------------------------------------------------------|
D|-----------------------------------------------------------|
A|--------3-3-3-3----------------------3-3-3-3---------------|
E|--5-5-5--------0--0-3-0--0-3-0-5-5-5--------0--0-3-0--0-0--|

[Refrão]

G|----------------------------------------------------------|
D|----------------------------------------------------------|
A|--5-5-5-5--5-5-5--5-5-5--5-5------------------------------|    
E|------------------------------5-5-5-5--5-5-5--5-5-5--5-5--|

G|----------------------------------------------------------|
D|----------------------------------------------------------|
A|------------------------------5-5-5-5--5-5-5--5-5--5---7--|
E|--0-0-0-0--0-0-0--0-0-0--0-0------------------------------|

G|----------------------------------------------------------|
D|----------------------------------------------------------|
A|----------------------------------------------------------|
E|--1-1-1-1--1-1-1--1-1-1--1-1--5-5-5-5--5-5-5--5-5-5--5-5--|

G|-------------------------------------------------------------|
D|-------------------------------------------------------------|
A|------------------------------5-5-5-5-5-5-5-5-5-5-5-5-5-5-5--|
E|--0-0-0-0--0-0-0--0-0-0--0-0---------------------------------|

G|----------------------------------------------------------------|
D|----------------------------------------------------------------|
A|----------------------------------------------------------------|
E|--5-5-5-8-8-8-8--0--0-3-0--0-3-0--5-5-5-8-8-8-8--0--0-3-0--0-0--|
Página 1 / 1

Letras e título
Acordes e artista

resetar configurações
OK