Run

Foo Fighters

tom: G
Refrão: 

(Guitarra 1 - 2x)

    C9           Am7(11)
E|--------10-----------10-------------------|
B|------8----8-------8----8-----------------|
G|----0--------0---9--------9---------------|
D|-10------------7--------------------------|
A|------------------------------------------|
E|------------------------------------------|

   Em7          D
E|-------10-----------10--------------------|
B|-----8----8-------7----7-8----------------|
G|---9--------9---7-------------------------|
D|--------------0---------------------------|
A|-7----------------------------------------|
E|------------------------------------------|

(Guitarra 2 - 2x)

E|------------------------------------------|
B|-------3-----------3----------------------|
G|-----0---0-------0---0--------------------|
D|---2-------2---2-------2------------------|
A|-3-----------0----------------------------|
E|------------------------------------------|

E|------------------------------------------|
B|-------3-----------3----------------------|
G|-----0---0-------0---0--------------------|
D|---2-------2---4-------0------------------|
A|-------------5----------------------------|
E|-0----------------------------------------|

(Guitarra 3 – Final do Refrão)

E|-0-0-0-0-0-0-0-0-0-0-0-0-0-0-0-0-0-0------|
B|-8-8-8-8-8-8-8-8-8-8-8-8-8-8-8-8-8-8------|
G|-9-9-9-9-9-9-9-9-9-9-9-9-9-9-9-9-9-9------|
D|------------------------------------------|
A|------------------------------------------|
E|------------------------------------------|

E|--0--0--0--0--0--0------------------------|
B|-10-10-10-10-10-10------------------------|
G|--9--9--9--9--9--9------------------------|
D|------------------------------------------|
A|------------------------------------------|
E|------------------------------------------|

E|-0-0-0-0-0-0-0-0-0-0-0-0------------------|
B|-8-8-8-8-8-8-8-8-8-8-8-8------------------|
G|-9-9-9-9-9-9-9-9-9-9-9-9------------------|
D|------------------------------------------|
A|------------------------------------------|
E|------------------------------------------|

 C9     Am7(11)
Wake up
 Em7                    D
Run for your life with me
 C9     Am7(11)
Wake up
 Em7                    D
Run for your life with me
C9   Am7(11)  Em7     D
In another   perfect life
C9   Am7(11)  Em7     D
In another   perfect light
   C9     Am7(11)
We    run
   Em7     D
We     run
   C9     Am7(11)
We    run


Interlúdio:

E|-----------------------------------------------------|
B|-----------------------------------------------------|
G|-----------------------------------------------------|  (4x)
D|-----------------------------------------------------|
A|-----------------------------------------------------|
E|-1p0--0-0-0-1p0--0-0-0-1p0--0-0-0-1p0--0-0-0---------|


Primeira Parte:

E|-----------------------------------------------------|
B|-----------------------------------------------------|
G|-----------------------------------------------------|  (4x) 
D|-----------------------------------------------------|
A|-----------------------------------------------------|
E|-1p0--0-0-0-1p0--0-0-0-1p0--0-0-0-1p0--0-0-0---------|

The rats are on parade
Another mad charade
What you gonna do?
The hounds are on the chase
If everything's erased
What you gonna do?

(Guitarra 1)

E|-----------------------------------------------------|
B|-----------------------------------------------------|
G|-----------------------------------------------------|  (4x) 
D|-----------------------------------------------------|
A|-----------------------------------------------------|
E|-1p0--0-0-0-1p0--0-0-0-1p0--0-0-0-1p0--0-0-0---------|

(Guitarra 2)

E|-----------------------------------------------------|
B|-----------------------------------------------------|
G|-b10r9--9--9--b10r9--9--9--b10r9--9--9--b10r9--9--9--|
D|-----------------------------------------------------|
A|-b-8r7--7--7--b-8r7--7--7--b-8r7--7--7--b-8b7--7--7--|
E|-----------------------------------------------------|

I need some room to breath
You can stay asleep
If you wanted to
They say that nothing's free
You can run with me
If you wanted to


Ponte:

(Guitarra 1)

E|-----------------------------------------------------|
B|-5----5---5---5---5---5--3-----3------8-------8------|
G|-7b9--b9~-b9~-b9~-b9~-b9-5b7---5b7---10b12---10b12---|
D|-----------------------------------------------------|
A|-----------------------------------------------------|
E|-----------------------------------------------------|

E|-----------------------------------------------------|
B|-----------------------------------------------------|
G|-b10r9--9--9--b10r9--9--9--b10r9--9--9--b10r9--9--9--|
D|-----------------------------------------------------|
A|-b-8r7--7--7--b-8r7--7--7--b-8r7--7--7--b-8b7--7--7--|
E|-----------------------------------------------------|

E|-----------------------------------------------------|
B|-5----5---5---5---5---5--3-----3------8-------8------|
G|-7b9--b9~-b9~-b9~-b9~-b9-5b7---5b7---10b12---10b12---|
D|-----------------------------------------------------|
A|-----------------------------------------------------|
E|-----------------------------------------------------|

E|-----------------------------------------------------|
B|-12------8-----10------8-----10-----11-----12--------|
G|-14b16~-10b12~-12b14~-10b12~-12b14~-13b15~-14b16~----|
D|-----------------------------------------------------|
A|-----------------------------------------------------|
E|-----------------------------------------------------|

(Guitarra 2)

   Em      G       A9      C9
E|-0---0---0---0---0---0---0---0------------|
B|-0---0---3---3---0---0---3---3------------|
G|-0---0---0---0---6---6---5---5------------|
D|-2---2---0---0---7---7---5---5------------|
A|-2---2-----------0---0--------------------|
E|-0---0---3---3----------------------------|

   A9      C7(9)   Em
E|-0---0---0---0---0------------------------|
B|-0---0---3---3---0------------------------|
G|-2---2---3---3---0------------------------|
D|-2---2---2---2---2------------------------|
A|-0---0---3---3---2------------------------|
E|-----------------0------------------------|

C5  G5  D5

(Riff) 
       You can run with me
               C5  G5  D5  E5
If you wanted to

   G5       A5       C5   A5
Before the time runs out
         C7(9)        E5
There's somewhere to run


Refrão:

(Guitarra 1)

   C5            A5
E|------------------------------------------|
B|------------------------------------------|
G|-5-5-5---------2-2-2----------------------|
D|-5-5-5---------2-2-2----------------------|
A|-3-3-3-5/7-5-3-0-0-0----0-----------------|
E|---------------------3b---3b--------------|

   E5          D5
E|------------------------------------------|
B|-------------3----------------------------|
G|-------------2----------------------------|
D|-2-2-2-------0----------------------------|
A|-2-2-2---2--------------------------------|
E|-0-0-0-3---3------------------------------|

(Guitarra 2)

E|-------10-----------10-----------10-----------10-----|
B|---8------8-8---8------8-8---8------8-8---7------7-8-|
G|-9---9--------9---9--------9---9--------7---7--------|
D|-----------------------------------------------------|
A|-----------------------------------------------------|
E|-----------------------------------------------------|

 C5     A5
Wake up
 E5                     D5
Run for your life with me
 C5     A5
Wake up
 E5                     D5
Run for your life with me
C5   A5     E5      D5
In another perfect life
C5   A5     E5      D5
In another perfect light
   C5     A5
We    run
   E5     D5
We    run
   C5     A5
We    run
 E5  ( D5  E5 )
Run


Segunda Parte:

(Guitarra 1)

E|-----------------------------------------------------|
B|-----------------------------------------------------|
G|-----------------------------------------------------|  (4x) 
D|-----------------------------------------------------|
A|-----------------------------------------------------|
E|-1p0--0-0-0-1p0--0-0-0-1p0--0-0-0-1p0--0-0-0---------|

(Guitarra 2)

E|-----------------------------------------------------|
B|-----------------------------------------------------|
G|-b10r9--9--9--b10r9--9--9--b10r9--9--9--b10r9--9--9--|
D|-----------------------------------------------------|
A|-b-8r7--7--7--b-8r7--7--7--b-8r7--7--7--b-8b7--7--7--|
E|-----------------------------------------------------|

We are the nation's stakes
If everything's erased
What you gonna do?
I need some room to breath
You can run with me
If you wanted to


Ponte:

C5  G5  D5

(Riff) 
       You can run with me
               C5  G5  D5  E5
If you wanted to

   G5       A5       C5   A5
Before the time runs out
         C7(9)        E5
There's somewhere to run


Refrão:

 C5     A5
Wake up
 E5                     D5
Run for your life with me
 C5     A5
Wake up
 E5                     D5
Run for your life with me
C5   A5     E5      D5
In another perfect life
C5   A5     E5      D5
In another perfect light
   C5     A5
We    run
   E5     D5
We    run
   C5     A5
We    run
 E5  ( D5  E5 ) G5  D5  E5
Run


Solo: E5  G5  D5  A5  F5  C5
      E5  G5  D5  A5

E|----7----7----7------5---------10-------9----9----9--|
B|-----------------------------------------------------|
G|-/9----9----9----9\7----7-7/12-----12\9----9----9----|
D|-----------------------------------------------------|
A|-----------------------------------------------------|
E|-----------------------------------------------------|

E|-----8-----------10----------------------------------|
B|-----------------------------------------------------|
G|-/10----10-10/12-----12\-----------------------------|
D|-----------------------------------------------------|
A|-----------------------------------------------------|
E|-----------------------------------------------------|

E|----7----7----7------5---------10-------9----9----7--|
B|-----------------------------------------------------|
G|-/9----9----9----9\7----7-7/12-----12\9----9----7----|
D|-----------------------------------------------------|
A|-----------------------------------------------------|
E|-----------------------------------------------------|

E|-----5----5------------------------------------------|
B|-----------------------------------------------------|
G|-7\6----6--------------------------------------------|
D|-----------------------------------------------------|
A|-----------------------------------------------------|
E|-----------------------------------------------------|


Refrão:

 C5
Wake up
 A5
Run for your life with me
 C5
Wake up
 A5
Run for your life with me

C5   A5     E5      D5
In another perfect life
C5   A5     E5      D5
In another perfect light
   C5     A5
We    run
   E5     D5
We    run
   C5     A5
We    run
 E5  ( D5  E5 )
Run

( G5  E5  D5  E5 )


Final:

(Guitarra 1)

                                          H.N
E|-----------------------------------------------------|
B|-----------------------------------------------------|
G|-----------------------------------------4-----------|  
D|-----------------------------------------4-----------|
A|-----------------------------------------------------|
E|-1p0--0-0-0-1p0--0-0-0-1p0--0-0-0-1p0--0-------------|

E|-----------------------------------------------------|
B|-----------------------------------------------------|
G|-----------------------------------------------------|  
D|-----------------------------------------------------|
A|-----------------------------------------x\----------|
E|-1p0--0-0-0-1p0--0-0-0-1p0--0-0-0-1p0--0-x\----------|

                                          H.N
E|-----------------------------------------------------|
B|-----------------------------------------------------|
G|-----------------------------------------x-----------|  
D|-----------------------------------------x-----------|
A|-----------------------------------------x-----------|
E|-1p0--0-0-0-1p0--0-0-0-1p0--0-0-0-1p0--0-------------|

E|-----------------------------------------------------|
B|-----------------------------------------------------|
G|-----------------------9-9-7-9\----------------------|  
D|-----------------------9-9-7-9\----------------------|
A|-----------------------7-7-5-7\----------------------|
E|-1p0--0-0-0-1p0--0-0-0-------------------------------|

(Guitarra 2)

                                                H.N
E|-----------------------------------------------------|
B|-----------------------------------------------9-----|
G|-10b9--9-9-9-10b9--9-9-9--10b9--9-9-9--10b9--x-9-----|  
D|---------------------------------------------x-9-----|
A|--8b7--7-7-7--8b7--7-7-7---8b7--7-7-7---8b7--x-------|
E|-----------------------------------------------------|

E|-----------------------------------------------------|
B|-----------------------------------------------------|
G|-10b9--9-9-9-10b9--9-9-9--10b9--9-9-9--10b9--x-------|  
D|---------------------------------------------x-------|
A|--8b7--7-7-7--8b7--7-7-7---8b7--7-7-7---8b7--x-x\----|
E|-----------------------------------------------x\----|

                                                H.N
E|-----------------------------------------------------|
B|-----------------------------------------------9-----|
G|-10b9--9-9-9-10b9--9-9-9--10b9--9-9-9--10b9--x-9-----|  
D|---------------------------------------------x-9-----|
A|--8b7--7-7-7--8b7--7-7-7---8b7--7-7-7---8b7--x-------|
E|-----------------------------------------------------|

E|-----------------------------------------------------|
B|-----------------------------------------------------|
G|-10b9--9-9-9-10b9--9-9-9--9-9-7-9\-------------------|  
D|--------------------------9-9-7-9\-------------------|
A|--8b7--7-7-7--8b7--7-7-7--7-7-5-7\-------------------|
E|-----------------------------------------------------|
Página 1 / 1

Letras e título
Acordes e artista

resetar configurações
OK