Run

Foo Fighters

[Introdução - Guitarra]

[Refrão]
Wake up,run for your life with me...

G|----------------------------------------------|
D|-5-10-9-7-----5-------------5-7-----5-7-------|
A|----------7-5---0---5-7-5-0-----7-5-------5---|
E|------------------0---------------------0-----|

G|----------------------------------------------|
D|-------5-7-----5-7----------------------------|
A|-7-5-0-----7-5-----7--------------------------|
E|----------------------------------------------|


[Primeira parte]

The rats are on parade...

Parte 1 de 4
G|----------------------------------------------|
D|----------------------------------------------|
A|----------------------------------------------|
E|-0-0-0-1p0-0-0-1p0-0-0-1p0-0-0-1p0-0-0-1p0----|

G|----------------------------------------------|
D|----------------------------------------------|
A|----------------------------------------------|
E|-0-0-1p0-0-0-1p0-0-0--------------------------|

Parte 2 de 4 (4x)
G|----------------------------------------------|
D|----------------------------------------------|
A|----------------------------------------------|
E|-1p0-0-0-1p0-0-0-1p0-0-0-1p0-0-0-1p0-0-0-1p0--|

G|----------------------------------------------|
D|----------------------------------------------|
A|----------------------------------------------|
E|-0-0-1p0-0-0-1p0-0-0--------------------------|

Parte 3 de 4
G|----------------------------------------------|
D|----------------------------------------------|
A|-3-3-3--3-3-3--------5-5----------------------|
E|---------------3-3-3------0-0-0-1p0-0-0-1p0---|

G|----------------------------------------------|
D|----------------------------------------------|
A|-------------3-3-3--3-3-3-------5-5-----------|
E|-0-0-1p0-0-0--------------3-3-3---------------|

Parte 4 de 4
G|----------------------------------------------|
D|----------------------------------------------|
A|----------------3--3------3--3----------------|
E|-0--0-3--3-5--5------5--5------0--0-----------|


[Refrão 2]

Wake up,run for your life with me...

Parte 1 de 3
G|----------------------------------------------|
D|----------------------------------------------|
A|-3-3-3-0-0-0-------5-3-3-3-0-0-0-------5------|
E|-------------0-0-0---------------0-0-0--------|

Parte 2 de 3 (3x)
G|----------------------------------------------|
D|----------------------------------------------|
A|-3-3-3--5/7-5-3--0-0-0---------------------5--|
E|-----------------------3-5-3--0-0-0--3-7-5----|

Parte 3 de 3
G|----------------------------------------------|
D|----------------------------------------------|
A|-3-3-3--7/5-3--0-0-0-------7-7-5--7-7-5--7-7--|
E|---------------------3-5-3--------------------|

G|----------------------------------------------|
D|----------------------------------------------|
A|-5-7\-----------------------------------------|
E|----------------------------------------------|


[Segunda parte]

We are the nation's stakes...

Parte 1 de 4
G|----------------------------------------------|
D|----------------------------------------------|
A|----------------------------------------------|
E|-0-0-0-1p0-0-0-1p0-0-0-1p0-0-0-1p0-0-0-1p0----|

G|----------------------------------------------|
D|----------------------------------------------|
A|----------------------------------------------|
E|-0-0-1p0-0-0-1p0-0-0--------------------------|

Parte 2 de 4 
G|----------------------------------------------|
D|----------------------------------------------|
A|----------------------------------------------|
E|-1p0-0-0-1p0-0-0-1p0-0-0-1p0-0-0-1p0-0-0-1p0--|

G|----------------------------------------------|
D|----------------------------------------------|
A|----------------------------------------------|
E|-0-0-1p0-0-0-1p0-0-0--------------------------|

Parte 3 de 4
G|----------------------------------------------|
D|----------------------------------------------|
A|-3-3-3--3-3-3--------5-5----------------------|
E|---------------3-3-3------0-0-0-1p0-0-0-1p0---|

G|----------------------------------------------|
D|----------------------------------------------|
A|-------------3-3-3--3-3-3-------5-5-----------|
E|-0-0-1p0-0-0--------------3-3-3---------------|

Parte 4 de 4
G|----------------------------------------------|
D|---------------------------------5------------|
A|----------------3--3------3--5h7--------------|
E|-0--0-3--3-5--5------5--5----------0-0--------|


[Refrão 3]

Wake up,run for your life with me...

Parte 1 de 3
G|----------------------------------------------|
D|----------------------------------------------|
A|-3-3-3-0-0-0-------5-3-3-3-0-0-0-------5------|
E|-------------0-0-0---------------0-0-0--------|

Parte 2 de 3 (3x)
G|----------------------------------------------|
D|----------------------------------------------|
A|-3-3-3--5/7-5-3--0-0-0---------------------5--|
E|-----------------------3-5-3--0-0-0--3-7-5----|

Parte 3 de 3
G|----------------------------------------------|
D|----------------------------------------------|
A|-3-3-3--5/7-5-3--0-0-0-------7-7-5--7-7-5--7-7|
E|-----------------------3-5-3------------------|

G|----------------------------------------------|
D|---------------------------5------------------|
A|-5--7-7-5--7-7-5--7-7-5--7---5-7\-------------|
E|----------------------------------------------|


[Terceira parte]

Parte 1 de 2
G|----------------------------------------------|
D|----------------------------------------------|
A|--------------------5-5-5-0-0-0--0-0-0--------|
E|-0-0-0--0-0-2-3-3-3--------------------1-1-1--|

G|----------------------------------------------|
D|----------------------------------------------|
A|-3-3-3---------------------5-5-5-0-0-0--0-0-0-|
E|-------0-0-0--0-0-2--3-3-3--------------------|

G|----------------------------------------------|
D|----------------------------------------------|
A|-0-0-0--0-0-0---------------------------------|
E|----------------------------------------------|

Parte 2 de 2
G|----------------------------------------------|
D|----------------------------------------------|
A|-3-3-3--3-3-3-2-2-2-5-5-5-0-0-0--0-0-0--0-0-0-|
E|----------------------------------------------|

G|----------------------------------------------|
D|----------------------------------------------|
A|-0-0-0----------------------------------------|
E|----------------------------------------------|


[Refrão 4]

In another perfect life...

Parte 1 de 2 (3x)
G|----------------------------------------------|
D|----------------------------------------------|
A|-3-3-3--5/7-5-3--0-0-0---------------------5--|
E|-----------------------3-5-3--0-0-0--3-7-5----|

Parte 2 de 2
G|----------------------------------------------|
D|----------------------------------------------|
A|-3-3-3--5/7-5-3--0-0-0-------7-7-5--7-7-5--7-7|
E|-----------------------3-5-3------------------|

G|----------------------------------------------|
D|-------------5-------5------------------------|
A|-5--7-7--5-7---7-5-7---7-5-7-7\---------------|
E|----------------------------------------------|


[Introdução Final] 

Parte 1 de 2 (3x)
G|----------------------------------------------|
D|----------------------------------------------|
A|----------------------------------------------|
E|-0-0-0-1p0-0-0-1p0-0-0-1p0--------------------|

Parte 2 de 2
G|----------------------------------------------|
D|----------------------------------------------|
A|----------------7-7-5-7\----------------------|
E|-0-0-0-1p0-0-0--------------------------------|
Página 1 / 1

Letras e título
Acordes e artista

resetar configurações
OK