Cifra Club

The Sky Is A Neighborhood

Foo Fighters

Tab de baixo: Principal
[Refrão] 

G|----------|
D|----------|
A|----------|
E|-0-3--0-3-|

G|-----------------------------------------------|-----------------------------|
D|-----------------------------------------------|-----------------------------|
A|---------2-2-2-------------------3-3-3-------2-|-----------------------------|
E|-0-0-0-----------3-3-3---5-5-5-----------0-0-0-|-5--5--5--5--5--5--0-3--0-3--|

G|-----------------------------------------------|-----------------------------|
D|-----------------------------------------------|-----------------------------|
A|---------2-2-2-------------------3-3-3-------2-|-----------------------------|
E|-0-0-0-----------3-3-3---5-5-5-----------0-0-0-|-5--5--5--5--5--5--0-3--0-3--|

G|-----------------------------------------------|-------------------------------|
D|-----------------------------------------------|-------------------------------|
A|---------2-2-2-------------------3-3-3-------2-|-------------------------5-7---|
E|-0-0-0-----------3-3-3---5-5-5-----------0-0-0-|-5--5--5--5--5--5--0-5-7-----0-|

[Segunda Parte] 

G|-------------------------------------------|------------------------------------|
D|-------------------------------------------|------------------------------------|
A|---7\2--2r------------------3--3r----------|------------------------------------|
E|------------3--3r--0-5--5r---------3--0-0r-|-5-5r--5-5r--0-3--0-3---------------|

G|-------------------------------------------|----------------------------------|
D|-------------------------------------------|----------------------------------|
A|-----7r----6-6r--5-5r--4-4r--3-3r-5/7------|----------------------------------|
E|-0-0----------------------------------0-0r-|-5-5r--5-5r--0-3--0-3-------------|

[Refrão] 

G|-----------------------------------------------|-----------------------------|
D|-----------------------------------------------|-----------------------------|
A|---------2-2-2-------------------3-3-3---------|-----------------------------|
E|-0-0-0-----------3-3-3---5-5-5-----------0-0-0-|-5--5--5--5--5--5--0-3--0-3--|

G|-----------------------------------------------|-----------------------------|
D|-----------------------------------------------|-----------------------------|
A|---------2-2-2-------------------3-3-3-------2-|-----------------------------|
E|-0-0-0-----------3-3-3---5-5-5-----------0-0-0-|-5--5--5--5--5--5--0-3--0-3--|

G|-----------------------------------------------|-----------------------------|
D|-----------------------------------------------|-----------------------------|
A|---------2-2-2-------------------3-3-3-------2-|-----------------------------|
E|-0-0-0-----------3-3-3---5-5-5-----------0-0-0-|-5--5--5--5--5--5--0-3--0-3--|

[Ponte]

G|------------|------------|------------|------------|------------|------------|
D|------------|------------|------------|------------|------------|------------|
A|-3--3--3--3-|-7--7--7--7-|-5--5--5--5-|------------|------------|------------|
E|------------|------------|------------|-5--5--5--5-|-3--3--3--3-|-2--2--1--1-|

[Refrão]

G|-----------------------------------------------|-----------------------------|
D|-----------------------------------------------|-----------------------------|
A|---------2-2-2-------------------3-3-3---------|-----------------------------|
E|-0-0-0-----------3-3-3---5-5-5-----------0-0-0-|-5--5--5--5--5--5--0-3--0-3--|

G|-----------------------------------------------|-----------------------------|
D|-----------------------------------------------|-----------------------------|
A|---------2-2-2-------------------3-3-3---------|-----------------------------|
E|-0-0-0-----------3-3-3---5-5-5-----------0-0-0-|-5--5--5--5--5--5--0-3--0-3--|

G|-----------------------------------------------|-----------------------------|
D|-----------------------------------------------|-----------------------------|
A|-----7---2-2-2-------------------3-3-3-------7-|-----------------------------|
E|-0-0-------------3-3-3---5-5-5-----------0-0---|-5--5--5--5--5--5--0-3--0-3--|

[Final]

G|------------|------------|------------|------------|------------|------------|
D|------------|------------|------------|------------|------------|------------|
A|-3--3--3--3-|------------|-5--5--5--5-|------------|------------|------------|
E|------------|-0--0--0--0-|------------|-5--5--5--5-|-3--3--3--3-|-2--2--1--1-|
exibições 9.368

0 comentários

mostrar mais comentários

Conseguiu tocar?

2 tocaram 3 ainda não

Grave um vídeo tocando The Sky Is A Neighborhood e mande pra gente!

00:00 / 00:00
outros vídeos desta música
repetir qualidade Automático
Outros vídeos desta música
00:00 / 00:00
Automático
OK