Times Like These

Foo Fighters

Composição de: Dave Grohl
tom: G
(intro)

E|--5--5--5--5--5--5--5--5-------|
B|-------------------------------|
G|--5--5--5--5--5--5--5--5-------|
D|-------------------------------|(2X)         
A|--0--5--5--0--5--0--5--5-------|
E|-------------------------------|

(Riff)
E|---------------------------------------------------|
B|---------------------------------------------------|
G|----------------12--11--------------12--11---------|
D|--0--12--10--0----------0-12--10-0-----------------|(3X)
A|--------------------------------------------12--10-|
E|---------------------------------------------------|

E|--5--5--5--5--5--5--5--5-------|
B|-------------------------------|
G|--5--5--5--5--5--5--5--5-------|
D|-------------------------------|
A|--0--5--5--0--5--0--5--5-------|
E|-------------------------------|

D               Am7
I am a one way motorway
                   C
I'm the one that drives away
         Em         (intro)
then follows you back home
D                     Am7
I am a street light shining
                    C
I'm a white light blinding bright
 Em          (intro)
burning off and on.

(refrão)
      C                    Em             D
it's times like these you learn to live again
      C                    Em             D
it's times like these you give and give again
      C                    Em             D
it's times like these you learn to love again
      C                Em           (intro)
it's times like these time and time again

D               Am7
I am a new day rising
                  C
I'm a brand new sky
                 Em       (intro)
that hangs the stars upon tonight

D                Am7
I am a little divided
              C
do I stay or run away
     Em          (intro)
and leave it all behind?

(refrão)
      C                    Em             D
it's times like these you learn to live again
      C                    Em             D
it's times like these you give and give again
      C                    Em             D
it's times like these you learn to love again
      C                Em          (intro)
it's times like these time and time again

(Riff)
E|---------------------------------------------------|
B|---------------------------------------------------|
G|----------------12--11--------------12--11---------|
D|--0--12--10--0----------0-12--10-0-----------------|(10X)
A|--------------------------------------------12--10-|
E|---------------------------------------------------|

(refrão 3x)
      C                    Em             D
it's times like these you learn to live again
      C                    Em             D
it's times like these you give and give again
      C                    Em             D
it's times like these you learn to love again
      C                Em          (intro)
it's times like these time and time again
Página 1 / 1

Letras e título
Acordes e artista

resetar configurações
OK