Minha Formatura

Forfun

Composição: Forfun
Tom: A
Intro:Toca se e solo abaixo junto com a base: A F#m D E


e||-----------------------------------------------------------------------||
B||-----------------------------------------------------------------------||
G||-----------------------------------------------------------------------||
D||-----------------------------------------------------------------------||
A||--0-5-5-0-4-0-4-5--0-5-5-0-4-0-4-5----7-5-4-5-7-5-4-5-7-5-4-0-2-0-2-4--||
E||-----------------------------------------------------------------------||


e||------------------------------------------------------------||
B||------------------------------------------------------------||
G||--9-7-6\2--9-7-6\2--- 9-7-6-7-6-4-1-2--2-2-2-2-2-2-2-2-2-2--||
D||------------------------------------------------------------||
A||------------------------------------------------------------||
E||------------------------------------------------------------||


A                         F#m        :             (durante essa parte repete varias vezes o riff)
Quase onze horas e eu não sei        :             (OBS: abafe a corte D)

                D                    :
Qual camisa escolher                 :             e||--------------------------||


                E            A       |             B||--------------------------||
Meus amigos buzinando preu descer    :             G||-----9-----7-----6-----7--|| 


                F#m                  :             D||-7-7---7-7---7-7---7-7----||
Meu cabelo tá legal                  :             A||--------------------------||

                   D                 :             E||--------------------------||
Minha roupa não tá mal               :
                    E7               :
Acho que ela vai gostar              :

D                A        
Festa animada tequila liberada
  D                        F#m
Minha prima cum cara no jardim
         E   
Que diversão
                D E
Mas não pra mim

Refrão:

            D                      F#m
Meu pai não sabe do tempo que eu passei
               Bm                        A
Matando aula a tarde e fingindo que estudei
          D                     F#m
E essas garotas só sabem me esnobar
             Bm                          A
Cadê o meu cachorro ele não vai me abandonar
          D            E
Melhor fechar os olhos e deixar pra lá

INTRO: A F#m D E
(t_g)

e||-------------------------------||
B||-------------------------------||
G||--9-7-6\2--9-7-6\2--- 9-7-6-7--||
D||-------------------------------||
A||-------------------------------||
E||-------------------------------||


A                     F#m
E as menininhas tão banais
                       D
Elas se vestem sempre iguais
                   E               A
Caras fortes se sentindo sempre os tais
                     F#m
Tudo girava ao meu redor
                      D
Tirei a calça achei melhor
                E7
Na piscina me jogar

D                 A  
Nada como antes amigos tão distantes
    D                           F#m
A escola já não volta e dela eu sei
              E
Que eu vou lembrar
             D E
Eu mergulhei

            D                      F#m
Meu pai não sabe do tempo que eu passei
               Bm                        A
Matando aula a tarde e fingindo que estudei
          D                     F#m
E essas garotas só sabem me esnobar
             Bm                          A
Cadê o meu cachorro ele não vai me abandonar
          D            E
Melhor fechar os olhos e deixar pra lá

(Aqui é apenas o baixo):

E os dias e as festas que eu vou lembrar        :

São fases da vida que vão passar                :      G||-----9-----7-----6-----7--||
                                                       D||-7-7---7-7---7-7---7-7----||


A      F#m       D         E  
Garotos tentando impressionar
A      F#m       D         E  
Garotas fingindo não se ligar

            D                      F#m
Meu pai não sabe do tempo que eu passei
               Bm                        A
Matando aula a tarde e fingindo que estudei
          D                     F#m
E essas garotas só sabem me esnobar
             Bm                          A
Cadê o meu cachorro ele não vai me abandonar

           D 
E agora eu não vou pra casa não
F#m
Tá tudo errado então
  B     
Ficar do meu lado 
           A                   
E quando o medo passar
         D             E
Eu vou fechar os olhos e deixar pra lá


                A F#m D E            :        A F#m D - E D A
e||------------------------------------------------------------------||
B||------------------------------------------------------------------||
G||--9-7-6\2--9-7-6\2--9-7-6-7-6-4-1-2----9-7-6\2--9-7-6\2--9-7-6-7--||
D||------------------------------------------------------------------||
A||------------------------------------------------------------------||
E||------------------------------------------------------------------||
Página 1 / 1

Letras e título
Acordes e artista

resetar configurações
variar acorde