Cifra Club

Aprenda

Lamento de Um Nordestino

Francis Lopes

Cifra: Principal (violão e guitarra)
tom: A
Intro: A F#m C#m D A F#m C#m D E A

E|-----------------2-0-------0---2---0--------------------------------------------|
B|--2------------------2---2---2-------3-2-3--2-------2---------------------------|
G|----4-2-------2-------------------------------4-2-4-----------------------------|
D|--------4---4-------------------------------------------------------------------|

E|-----------------2-0-------0---2---0-------------------------------|
B|--2------------------2---2---2-------3-2-3--2----------------------|
G|----4-2-------2-------------------------------4-2-2---1------------|
D|--------4---4-------------------------------------------4-2--------|

OU
    
E|----------------------14-12---------12----14---12--------------------------|
B|--14-12-10---------10-------14---14----14---------15-14-15--14-12-10-12-14-|
G|-----------11---11---------------------------------------------------------|
D|---------------------------------------------------------------------------|
                                                                         
E|----------------------14-12---------12----14---12--------------------------------|
B|--14-12-10---------10-------14---14----14---------15-14-15--14-12-10-10---9------|
G|-----------11---11----------------------------------------------------------11-9-|
D|---------------------------------------------------------------------------------|


A                                     E
Só Deus sabe o quanto sofre um nordestino
                       D
Que vê seu sonho de menino
                 A
Se acabando pelo ar
                               E
Ele sofre quando tem que ir embora
                 D
A família toda chora
                  A     E 
Mas não pode mas ficar

A                              E
Entra no ônibus de coração partido
                     D
Sabe que vai ser sofrido
                  A
O mundo da desilusão
                              E
Ele reza e pede pra nossa Senhora
                  D
Guiar sua sorte agora
                        A  
Entrega a vida em suas mãos


Refrão:
            F#m               C#m
Eu sei que vou, vou pra São Paulo
            D                          A
Mas vou deixando a minha fonte de alegria
          F#m             C#m
Deus por favor, me dê trabalho
       D           E              A
E a esperança de poder voltar um dia

A                             E
Ele chega na cidade grande e vê
                        D
O quanto é duro pra vencer
                  A
Começa logo a lembrar
                                  E
Lembra da mãe e do pai que lá deixou
                  D
Dos amigos que ficou
    E             A   E
Esperando ele voltar

A                                    E
Feliz daquele que arranja um bom emprego
                          D
Que sobra um pouco de dinheiro
         E          A
Para o norte ele mandar
                                      E
Triste do outro que a vida é só sofrimento
                    D
Ele tenta, tenta, tenta,
                      A   
Mas não consegue trabalhar


Refrão:
            F#m             C#m
Eu sei que tô,  tô em São Paulo
          D                       A
Mas lá deixei a minha fonte de alegria
           F#m           C#m
Deus por favor, me dê trabalho
        D          E              A
E a esperança de poder voltar um dia

A                                    E
Tô em São Paulo, mas vim pra cá obrigado
                    D
Sei que é um bom estado
                      A
E muita gente se dar bem
                                    E
Tou trabalhando e vou ficando por aqui
                        D
Mas não troco o meu Piauí
                   A   E
Pela terra de ninguém

A                              E
Alô mamãe, alô papai aqui vou bem
                       D
Dê lembranças pra meu bem
                         A
E pra quem perguntar por mim
                                     E
Vou enviando uma caixinha com um presente
                   D
Vai pelo seu Zé Vicente
                   A    E
Da empresa Itapemirim

A                                     E
Tô com saudade, com vontade de ir embora
                   D
Mas não posso ir agora
                    A
Pois tenho que trabalhar
                                    E
No mês de junho, eu de férias vou sair
                D
Me aguarde por aí 
                   A   
Porque vou lhe visitar

           F#m              C#m
Eu sei que tô, tou em São Paulo
           D                       A
Mas lá deixei a minha fonte de alegria
           F#m             C#m
Deus por favor, eu só te peço
        D         E             A
A liberdade de poder voltar um dia
Composição de Francis Lopes
Colaboração e revisão:
  • Francis Lopes
3.572 exibições
    • ½ Tom
    • A
    • Bb
    • B
    • C
    • Db
    • D
    • Eb
    • E
    • F
    • F#
    • G
    • Ab
  • Adicionar à lista

    0 comentários

    Ver todos os comentários

    Conseguiu tocar?

    0 Tocaram 0 Ainda não

    Grave um vídeo tocando Lamento de Um Nordestino e nos envie!

    00:00 / 00:00
    Outros vídeos desta música
    Repetir Qualidade Automático
    Outros vídeos desta música
    00:00 / 00:00
    Automático

    Cifra Club Pro

    Aproveite o Cifra Club com benefícios exclusivos e sem anúncios
    Cifra Club Pro
    Aproveite o Cifra Club com benefícios exclusivos e sem anúncios
    OK