Cifra Club

Aprenda

Doce É Sentir - Solo

Francisco e Clara

Cifra: Principal (violão e guitarra)
Tom: C
E|----0--1--3---5--3--1--5--3---8--7--5--3--0---1--1--0---------------------------------------------------------------------------
B|--1----------------------------------------------------1--1~3--3----------------------------------------------------------------
G|--------------------------------------------------------------------------------------------------------------------------------
D|--------------------------------------------------------------------------------------------------------------------------------
A|--------------------------------------------------------------------------------------------------------------------------------
E|--------------------------------------------------------------------------------------------------------------------------------

E|----0--1--3---5--3--1--5--3--3---8--7--5--3--0---1--1--0------------------------------------------------------------------------
B|--1------------------------------------------------------1--1~3--3---------------------------------------------------------------
G|--------------------------------------------------------------------------------------------------------------------------------
D|--------------------------------------------------------------------------------------------------------------------------------
A|--------------------------------------------------------------------------------------------------------------------------------
E|--------------------------------------------------------------------------------------------------------------------------------

E|--0--1--3--0--0----0--1--0---------------0--1--3--0---0--1--0-------------------------------------------------------------------
B|----------------------------3--1--1~3--------------------------3--1--1~3--------------------------------------------------------
G|--------------------------------------------------------------------------------------------------------------------------------
D|--------------------------------------------------------------------------------------------------------------------------------
A|--------------------------------------------------------------------------------------------------------------------------------
E|--------------------------------------------------------------------------------------------------------------------------------
Composição de Welington Mota
Colaboração e revisão:
  • Welington Mota
  • Welington Mota
494 exibições
    • ½ Tom
    • A
    • Bb
    • B
    • C
    • Db
    • D
    • Eb
    • E
    • F
    • F#
    • G
    • Ab
  • Adicionar à lista

    0 comentários

    Mostrar mais comentários

    Conseguiu tocar?

    2 Tocaram 0 Ainda não

    Grave um vídeo tocando Doce É Sentir - Solo e mande pra gente!

    00:00 / 00:00
    outros vídeos desta música
    repetir qualidade Automático
    Outros vídeos desta música
    00:00 / 00:00
    Automático

    Cifra Club Pro

    Aproveite o Cifra Club com benefícios exclusivos e sem anúncios
    Cifra Club Pro
    Aproveite o Cifra Club com benefícios exclusivos e sem anúncios
    OK