O Tempo É Sua Morada

Francisco, El Hombre

Composição de: Andrei Kozyreff / Juliana Strassacapa / Mateo Piracés Ugarte / Rafael Gomes / Sebástian Piracés-Ugarte
tom: F
[Intro] F  C    Am

     F        C              Am         F       C           Am
E|----1-x----------------x-------0--|-------x----------------x----0-|
B|----1-x---1----------3-x---1---0--|-----1-x----1---------3-x--1-0-|
G|----2-x---0----------4-x---2---0--|-----2-x----0---------4-x--2-0-|
D|-3----x---2----------3-x---2---0--|-----3-x----2---------3-x--2-0-|
A|------x---3---3-0-2----x---0---0--|-------x--3-----3-0-2---x--0-0-|
E|------x----------------x----------|--1----x----------------x------|

[Solo Guitarra]

E|----------------------------8-------------|
B|------------------------------10----------|
G|--------------------------------------9---|
D|-----5h7--5---------------------10-12-----|
A|---------------3-5-7----------------------|
E|------------------------------------------|

         F        C
Trago no peito costuradas
       Am
Contas de memória fresca
F    C                   Am
 Pão quentinho sobre a mesa
  F        C      
O cheiro sobe a escada
    Am
Acordo e não vejo nada

F  C          Am
    O tempo é sua morada

( F  C    Am )

         F      C
Trago na aba da minha saia
     Am
Costurada em zig-zag
F     C               Am
  Café preto e um cigarro
    F          C
Seu canto e gargalhada
  Am
Ecoando pela casa

F  C          Am
    O tempo é sua morada

( F  C    Am )

     F        C                Am
Se o vento te levou, o tempo é sua morada
     F        C                Am
Se o vento te levou, o tempo é sua morada

( F  C    Am )
( F  C    Am )

Não levo dor e nem tristeza

Ponho as cartas sobre a mesa

E a ferida cicatriza

Toda pena um dia passa

E o amor vira certeza

O tempo é sua morada
     F        C                Am
Se o vento te levou, o tempo é sua morada
     F        C                Am
Se o vento te levou, o tempo é sua morada
     F        C                Am
Se o vento te levou, o tempo é sua morada
     F        C                Am
Se o vento te levou, o tempo é sua morada

Bb               Am   
 Não vou esquecer
G
 Não vou esquecer, vou te celebrar
F                 C
 Não vou esquecer, vou te celebrar
G
 Não vou esquecer, vou te celebrar

( F  C     Am )

Para para pa para

Paia pa para
Página 1 / 1

Letras e título
Acordes e artista

resetar configurações
OK