Cifra Club

Aprenda

Salsa Sadô

Francisco, El Hombre

Cifra: Principal (violão e guitarra)
tom: C
Intro: Am  Cm7  Bm7  G#7M(5+)

       Am    Cm7   Bm7  G#7M(5+)
E|----x-----x-----x-----x------------------|
B|----5-----4-----3-----5------------------|
G|----5-----3-----2-----5------------------|
D|----x-----4-----3-----x------------------|
A|----x-----3-----2-----x------------------|
E|----5-----x-----x-----4------------------|

 Am             Cm7             Bm7   G#7M(5+)
Deixa eu te contar o que eu vou te fazer:
             Am    Cm7 Bm7  G#7M(5+)
Eu vou arrancar a tua roupa;
        Am   Cm7   Bm7       G#7M(5+)      Am   Cm7   Bm7   G#7M(5+)
Sua cintura dando sopa vou acelerar.

 Am           Cm7            Bm7  G#7M(5+)
Sinta-se num salto de autoestima;
 Am         Cm7        Bm7   G#7M(5+)
Jogue-se do alto de um alto tédio
              Am     Cm7    Bm7            G#7M(5+)      Am   Cm7   Bm7   G#7M(5+)
E esqueça os metros que te restam para o chão chegar.

Am         Cm7       Bm7      G#7M(5+)   (4x)
Dan da ro ran da ro ran da raia laiara 

          Am                     Cm7     Bm7           G#7M(5+)
Tire o espelho da parede pra não se enxergar (adeus narciso)
    Am                        Cm7    Bm7            G#7M(5+)
Entregue-se ao tesão sem se envergonhar, como um menino.
     Am       Cm7       Bm7           G#7M(5+)    Am   Cm7   Bm7   G#7M(5+)
Chacoalhe as mãos e as pernas para o sangue lhe voltar.

 Am    Cm7        Bm7 G#7M(5+)
Feche bem os seus olhos,
  Am        Cm7       Bm7    G#7M(5+)
(dan da ro ran da ro ran da rora ai)
 Am         Cm7          Bm7 G#7M(5+)
Sinta o arrepio dos seus ossos,
 Am        Cm7       Bm7    G#7M(5+)
(dan da ro ran da ro ran da rora ai)
 Am        Cm7       Bm7 G#7M(5+)
Crave suas unhas nas costas
 Am        Cm7       Bm7    G#7M(5+)
(dan da ro ran da ro ran da rora ai)
 F                 E
Solte o apetite e sue no delírio:

     Am  Cm7   Bm7   G#7M(5+) Am   Cm7   Bm7   G#7M(5+)
Eu quero é quebrar essas verdades.
 Am  Am   Cm7 Bm7      G#7M(5+) Am   Cm7   Bm7   G#7M(5+)
Sai sai, sai sai dessa civilidade.
   Am  Cm7    Bm7      G#7M(5+) Am   Cm7   Bm7   G#7M(5+)
E para não perder a intimidade,
 Am          Cm7 Bm7
Cai ai ai ai ai ai cai pro samba.

Base Solo: Am  Cm7  Bm7  G#7M(5+)

Fim do solo : 

        Am Am  Cm7   Bm7
E|----x--x----x----x-----------------------|
B|----5--5----4----3-----------------------|
G|----5--5----3----2-----------------------|
D|----x--x----4----3----------5------------|
A|----x--x----3----2----7-7-7---7-5-3------|
E|----5--5----x----x-----------------------|

Dedilhado pós-solo:

E|--------------------------------------------|
B|----5-----4-----3----5----------------------|
G|-----------------------5--------------------|
D|--------------------------------------------|
A|--------3-----2-----------------------------|
E|--5---------------4-------------------------|

E|---------------------5-5-5------------------|
B|----5-----4-----3----5-5-5------------------|
G|--------------------------------------------|
D|--------------------------------------------|
A|--------3-----2-----------------------------|
E|--5---------------4-------------------------|

E|--------------------------------------------|
B|----5-----4-----3----5----------------------|
G|-----------------------5--------------------|  (2x) 
D|--------------------------------------------|
A|--------3-----2-----------------------------|
E|--5---------------4-------------------------|

Base do dedilhado: Am   Cm7   Bm7   G#7M(5+)

O choque do gozo se vai e o êxtase que lhe vem
É sentimento que acalma meu bem. 
Tô tranquila. bem parada.
Satisfeita. acabada.

~assobios (continua a mesma linha de dedilhado)

Eu quero é quebrar nossas verdades.
Sai sai, sai sai dessa civilidade.
E para não perder a intimidade,

Am          Cm7 Bm7
Cai ai ai ai ai ai cai pro samba.

( Am   Cm7   Bm7   G#7M(5+) ) 4x


     Am   Cm7  Bm7  G#7M(5+) Am   Cm7   Bm7   G#7M(5+)
Eu quero é quebrar essas verdades.
 Am  Am   Cm7 Bm7      G#7M(5+) Am   Cm7   Bm7   G#7M(5+)
Sai sai, sai sai dessa civilidade.
   Am  Cm7    Bm7      G#7M(5+) Am   Cm7   Bm7   G#7M(5+)
E para não perder a intimidade,
 Am          Cm7 Bm7
Cai ai ai ai ai ai cai pro samba.

( Am   Cm7   Bm7   G#7M(5+) )  4x

Am         Cm7       Bm7      G#7M(5+)   (3x)
Dan da ro ran da ro ran da raia laiara 

        Am Am  Cm7   Bm7
E|----x--x----x----x-------------------x---|
B|----5--5----4----3-------------------5---|
G|----5--5----3----2-------------------5---|
D|----x--x----4----3----------5--------x---|
A|----x--x----3----2----7-7-7---7-5-3--x---|
E|----5--5----x----x-------------------5---|
Compositor não encontrado.
Colaboração e revisão:
  • Léo Lopes
671 exibições
    • ½ Tom
    • A
    • Bb
    • B
    • C
    • Db
    • D
    • Eb
    • E
    • F
    • F#
    • G
    • Ab
  • Adicionar à lista

    0 comentários

    Ver todos os comentários

    Conseguiu tocar?

    1 Tocaram 0 Ainda não

    Grave um vídeo tocando Salsa Sadô e nos envie!

    00:00 / 00:00
    Outros vídeos desta música
    Repetir Qualidade Automático
    Outros vídeos desta música
    00:00 / 00:00
    Automático

    Cifra Club Pro

    Aproveite o Cifra Club com benefícios exclusivos e sem anúncios
    Cifra Club Pro
    Aproveite o Cifra Club com benefícios exclusivos e sem anúncios
    OK