Cifra Club

Fly Me To The Moon

Frank Sinatra

Cifra: Principal (violão e guitarra)
tom: C
[Primeira Parte] 

Parte 1 De 4
   Am7       Dm7       G7        C7M
E|------------------------------------------|
B|---5---5-----6---6-----0---0------5---5---|
G|---5---5-----5---5-----0---0------4---4---|
D|---5---5-----7---7-----3---3------5---5---|
A|-----------5---5-7-8-----0-1-2--3---------|
E|-5---7-8-9-----------3--------------0-3-2-|

Parte 2 De 4
   F7M        Bm7(5-)   E7        Am7   A7
E|------------------------------------------|
B|---1---1------3---3----0---0------1---2---|
G|---2---2------2---2----1---1------0---0---|
D|---2---2------3---3----0---0------2---2---|
A|-------0-3--2---2---2-----------0---0-0-0-|
E|-1---3------------1---0--2-3-4------------|
Parte 3 De 4
   Dm7       G7        C7M    F7M  Em   A7
E|----------------------------5----0--------|
B|---6---6-----3---3------5---5----0----2---|
G|---5---5-----4---4------4---5----0----0---|
D|---7---7-----3---3------5---3-3--2-2--2---|
A|-5---7-8-9-------5-4--3---3-----------0-0-|
E|-----------3---5--------------------------|

Parte 4 De 4
   Dm7             F/G  C6(9)   Bm7(5-) E7
E|-----------------------3---3--------------|
B|---6---6-----6---1-----3---3-----3----0---|
G|---5---5-----5---2-----2---2-----2----1---|
D|---7---7-----7---3---------------3----0---|
A|-5---------5---5-----3---3---3-2----------|
E|-----8-7-5-------3-3-------3-------1--0-4-|

  Am7           Dm7
Fly me to the Moon
         G7             C7M
Let me play among the stars
 F7M               Bm7(5-)
Let me see what spring is like
   E7             Am7  A7
On   Jupiter and Mars
   Dm7         G7  
In other words 
         C7M  F7M  Em  A7
Hold my hand
   Dm7 
In other words
 F/G   C6(9)  Bm7(5-)  E7
Baby, kiss me

[Segunda Parte] 

Parte 1 De 4
   Am7       Dm7       G7        C7M
E|------------------------------------------|
B|---5---5-----6---6-----0---0------5---5---|
G|---5---5-----5---5-----0---0------4---4---|
D|---5---5-----7---7-----3---3------5---5---|
A|-----------5---5-7-8-----0-1-2--3---------|
E|-5---7-8-9-----------3--------------0-3-2-|

Parte 2 De 4
   F7M        Bm7(5-)   E7        Am7   A7
E|------------------------------------------|
B|---1---1------3---3----0---0------1---2---|
G|---2---2------2---2----1---1------0---0---|
D|---2---2------3---3----0---0------2---2---|
A|-------0-3--2---2---2-----------0---0-0-0-|
E|-1---3------------1---0--2-3-4------------|

Parte 3 De 4
   Dm7       G7        C7M   Bb2(6) Em7(5-) A7 
E|------------------------------------------|
B|---6---6-----3---3------5----6---8----5---|
G|---5---5-----4---4------4----5---7----6---|
D|---7---7-----3---3------5----5---8----5---|
A|-5---7-8-9-------5-4--3---3------7-7------|
E|-----------3---5-------------6-6------5-5-|

Parte 4 De 4
   Am7  G#7  F/G        C6(9)    Bm7(5-) E7
E|------------------------3---3-------------|
B|-5----4----1---1--------3---3-----3---0---|
G|-5----5----2---2--------2---2-----2---1---|
D|-5----4----3---3------------------3---0---|
A|----------------------3---3---3-2---------|
E|-5-5--4-4--3-3---3-3--------3-------1-0-4-|

 Am7                Dm7
Fill my heart with song
        G7            C7M
Let me sing for ever more
 F7M           Bm7(5-)
You are all I long for all I 
 E7           Am7  A7
Worship and adore
   Dm7         G7
In other words
              C7M  Bb2(6)  Em7(5-)  A7
Please, be true
   Am7    G#7  F/G
In other words 
           C6(9)  Bm7(5-)  E7
I love you

Parte 1 De 4
   Am7       Dm7       G7        C7M
E|------------------------------------------|
B|---5---5-----6---6-----0---0------5---5---|
G|---5---5-----5---5-----0---0------4---4---|
D|---5---5-----7---7-----3---3------5---5---|
A|-----------5---5-7-8-----0-1-2--3---------|
E|-5---7-8-9-----------3--------------0-3-2-|

Parte 2 De 4
   F7M        Bm7(5-)   E7        Am7   A7
E|------------------------------------------|
B|---1---1------3---3----0---0------1---2---|
G|---2---2------2---2----1---1------0---0---|
D|---2---2------3---3----0---0------2---2---|
A|-------0-3--2---2---2-----------0---0-0-0-|
E|-1---3------------1---0--2-3-4------------|

Parte 3 De 4
   Dm7       G7        C7M    F7M  Em   A7
E|----------------------------5----0--------|
B|---6---6-----3---3------5---5----0----2---|
G|---5---5-----4---4------4---5----0----0---|
D|---7---7-----3---3------5---3-3--2-2--2---|
A|-5---7-8-9-------5-4--3---3-----------0-0-|
E|-----------3---5--------------------------|

Parte 4 De 4
   Dm7   G#7  F/G       C6(9)    Bm7(5-) E7
E|------------------------3---3-------------|
B|---6---4----1---1-------3---3-----3---0---|
G|---5---5----2---2-------2---2-----2---1---|
D|---7---4----3---3-----------------3---0---|
A|-5---5-----------------3---3---3-2--------|
E|-------4-4--3-3---3-3-------3-------1-0-4-|

( Am7  Dm7  G7  C7M )
( F7M  Bm7(5-)  E7 )
( Am7  A7  Dm7  G7 )
( C7M  F7M  Em  A7 )
( Dm7  G#7  F/G )
( C6(9)  Bm7(5-)  E7 )

[Terceira Parte] 

Parte 1 De 5
   Am7       Dm7       G7        C7M
E|------------------------------------------|
B|---5---5-----6---6-----0---0------5---5---|
G|---5---5-----5---5-----0---0------4---4---|
D|---5---5-----7---7-----3---3------5---5---|
A|-----------5---5-7-8-----0-1-2--3---------|
E|-5---7-8-9-----------3--------------0-3-2-|

Parte 2 De 5
   F7M        Bm7(5-)   E7        Am7   A7
E|------------------------------------------|
B|---1---1------3---3----0---0------1---2---|
G|---2---2------2---2----1---1------0---0---|
D|---2---2------3---3----0---0------2---2---|
A|-------0-3--2---2---2-----------0---0-0-0-|
E|-1---3------------1---0--2-3-4------------|

Parte 3 De 5
   Dm7       G7        Em7(5-)    A7
E|------------------------------------------|
B|---6---6-----3---3-----8---8------5---5---|
G|---5---5-----4---4-----7---7------6---6---|
D|---7---7-----3---3-----8---8------5---5---|
A|-5---7-8-9-----------7---7---7--------7---|
E|-----------3---5-6-7-------6----5---5---5-|

Parte 4 De 5
   Dm7       F/G       Fm7(9)    Bb7(13)
E|------------------------------------------|
B|---6---6-----1---1-----8---8-----8---8----|
G|---5---5-----2---2-----8---8-----7---7----|
D|---7---7-----3---3-----6---6-----6---6----|
A|-5---7-8-9-----------8---8---8------------|
E|-----------3---3-3-3-------8---6---6-6--6-|

Parte 5 De 5
   Gm7      G7                       C6(9)
E|-------------------8----8----8-----3------|
B|-3--------3--------4/5--4/5--4/5---3------|
G|-3--------4------------------------2------|
D|-3--------3------------------------2------|
A|-----------------------------------3------|
E|-3-3-3-3--3-3-3-3-------------------------|

 Am7                Dm7
Fill my heart with song
        G7            C7M
Let me sing for ever more
 F7M           Bm7(5-)
You are all I long for all I 
 E7           Am7  A7
Worship and adore
   Dm7         G7
In other words
             Em7(5-)  A7
Please, be true
   Dm7         F/G   Fm7(9)    Bb7(13)   
In other words    in other wooooords
Gm7  G7   C6(9)   
I   love you
00:00 / 00:00
Outros vídeos desta música
Repetir
Outros vídeos desta música
Composição de Bart Howard
406.204 exibições
  • Simplificar cifra
    • ½ Tom
    • A
    • Bb
    • B
    • C
    • Db
    • D
    • Eb
    • E
    • F
    • F#
    • G
    • Ab
  • Adicionar à lista

    0 comentários

    Ver todos os comentários

    Conseguiu tocar?

    118 Tocaram 24 Ainda não

    Grave um vídeo tocando Fly Me To The Moon e nos envie!

    Entre para oCifra Club PRO

    Tenha acesso a benefícios exclusivos no App e no Site

    • Chega de anúncios

    • Prioridade de compra em lançamentos

    • Mais recursos no app do Afinador

    • Atendimento Prioritário

    • Descontos nos produtos Cifra Club

    • Ajude a produzir mais conteúdo

    00:00 / 00:00
    Capítulos
    • Tocando a Música
    • Apresentação/Equipamentos
    • Acordes da Primeira Parte
    • Tocando Primeira Parte
    • Exercício Rítmico
    • Ensinando Primeira Parte - Parte 1 de 4
    • Ensinando Primeira Parte - Parte 2 de 4
    • Ensinando Primeira Parte - Parte 3 de 4
    • Ensinando Primeira Parte - Parte 4 de 4
    • Acordes da Segunda Parte
    • Tocando Segunda Parte
    • Ensinando Segunda Parte - Parte 1 de 4
    • Ensinando Segunda Parte - Parte 2 de 4
    • Ensinando Segunda Parte - Parte 3 de 4
    • Ensinando Segunda Parte - Parte 4 de 4
    • Ensinando Instrumental - Parte 1 de 4
    • Ensinando Instrumental - Parte 2 de 4
    • Ensinando Instrumental - Parte 3 de 4
    • Ensinando Instrumental - Parte 4 de 4
    • Acordes da Terceira Parte
    • Tocando Terceira Parte
    • Ensinando Terceira Parte - Parte 3 de 5
    • Ensinando Terceira Parte - Parte 4 de 5
    • Ensinando Terceira Parte - Parte 5 de 5
    • Encerramento

    Cifra Club Pro

    Aproveite o Cifra Club com benefícios exclusivos e sem anúncios
    Cifra Club Pro
    Aproveite o Cifra Club com benefícios exclusivos e sem anúncios
    OK