Let's Make The Water Turn Black

Frank Zappa

Composição de: Frank Zappa
tom: Afinação:
Album: We're Only In It For The Money



Intro

G||------------------------------------------------|
D||*|
A||------------------------------------------------|
E||------------------------------------------------|

verse 1

G||-----------------------------------|
D||--10--10/9---7--7-7----------------|
A||*|
E||-----------------------------------|

G||------------------------------------|
D||--10--10/9---7---78-8----6--65------|
A||-----------10--------6--6-------10--|
E||------------------------------------|

Verse 2

G||-----------------------------------|
D||--10--10/9---7--7-7----------------|
A||*|
E||-----------------------------------|

G||------------------------------|
D||--10--10/9---7----78--87--7---|
A||-----------10--------------5--|
E||------------------------------|

Inter

G||--------------------------4--47-7--|
D||---5---3--35--57--75--57--7--------|
A||--5---5----------------------------|
E||-----------------------------------|

G||---------------------------------------|
D||*|
A||-------------------3-3-3-6-5-----------|
E||---------------------------------------|

verse 3

G||-----------------------------------|
D||--10--10/9---7--7-7----------------|
A||*|
E||-----------------------------------|

G||---------------------------------|
D||--10--10/9---7--------------7----|
A||*|
E||---------------------------------|

Inter 2

G||------------------------------------------------------------------|
D||--7--------7--77--79--------7--77--79----------------2--22--2--0--|
A||---7--77--7---------7--77--7---------7--77-5-3--32--2-------------|
E||------------------------------------------------------------------|

G||--------------------------4--47-7--|
D||---5---3--35--57--75--57--7--------|
A||--5---5----------------------------|
E||-----------------------------------|

G||---------------------------------------|
D||*|
A||-------------------3-3-3-6-5-----------|
E||---------------------------------------|

Verse 4

G||--------------------------------------|
D||--10--10/9---7--7-7-------------------|
A||*|
E||----------------------------------10--|

G||---------------------------------|----------------|
D||--10--10/9---7--------------7----|-------------7--|
A||*|*|
E||---------------------------------|----------------|

Tab by: PEdro Zappa
Página 1 / 1

Letras e título
Acordes e artista

resetar configurações
OK