Cifra Club

Aprenda

Get Up And Use Me

Franz Ferdinand

Cifra: Principal (violão e guitarra)
Tom: C#
Intro
Baixo:
  Use me
G|---------------------|
D|---------------------|
A|----------9---9--9---|
E|-------------------9-|

Guitarra 1
00.05 - 00.17
e|-----------------------------------|
B|-----------------------------------|
G|-----------------------------------|
D|------------7-7--------------------|
A|--9-9--9--9--------9-9--9--9-8-----|
E|-------------------------------9---|

Guitarra 2
00.11 - 00.42(g-g-g-get upaa)  Agora toque rápido,rápido e rápido
e|-------------------------------|
B|-------------------------------|
G|-------------------------------|
D|---7-7-------7-----------------|
A|-7-----9-7-9---x-7-9-9--9--7-9-|
E|-------------------------------|
                               
                             

e|-------------------------------|
B|-------------------------------|
G|-------------------------------| 
D|---7-7-------7-----------------|
A|-7-----9-7-9---9-7-9-9--9--7-9-|
E|-------------------------------|
----------------------------------------------------------------------------------------------


G|---------------------|
D|---------------------|
A|----------9---9--9---|
E|-------------------9-|

Guitarra 1

       //   //
e|-----------------------|
B|-9---9----9----8-8-8---|
G|-10--10---10---8-8-8---|
D|-10--10---10---8-8-8---|
A|-8---8----8----8-8-8---|
E|-----------------------|

// = Bater rápido várias vezes na mesma casa 

Novamente a guitarra 1 

e|----------|
B|-x-x-9----|
G|-x-x-10---|
D|-x-x-10---|
A|-x-x-8----|
E|----------|


Guitarra 2  toca até o final

e|-----------------------------------------|
B|-----------------------------------------|
G|-----------------------------------------|
D|-10-10-10---7---10--10-10---7-11-11-11---|
A|----------9---------------9--------------|
E|-----------------------------------------|
Composição de The Fire Engines
Colaboração e revisão:
  • Renan Pires
900 exibições
    • ½ Tom
    • A
    • Bb
    • B
    • C
    • Db
    • D
    • Eb
    • E
    • F
    • F#
    • G
    • Ab
  • Adicionar à lista

    0 comentários

    Mostrar mais comentários

    Conseguiu tocar?

    0 Tocaram 0 Ainda não

    Grave um vídeo tocando Get Up And Use Me e mande pra gente!

    00:00 / 00:00
    outros vídeos desta música
    repetir qualidade Automático
    Outros vídeos desta música
    00:00 / 00:00
    Automático

    Cifra Club Pro

    Aproveite o Cifra Club com benefícios exclusivos e sem anúncios
    Cifra Club Pro
    Aproveite o Cifra Club com benefícios exclusivos e sem anúncios
    OK