Get Up And Use Me

Franz Ferdinand

Composição de: The Fire Engines
Get Up and Use Me(live/cover)
Bass
Standard Tuning

Tab by:Adrian Stone

Verse
G|---------------|
D|---------------|
A|-9-9-9--9-9-9--|
E|----9-9----9-99|   x17
(pause)Paul: "Use me!"

Verse
G|---------------|
D|---------------|
A|-9-9-9--9-9-9--|
E|----9-9----9-99|   x9
(pause)Paul: "Use me!"

Verse
G|---------------|
D|---------------|
A|-9-9-9--9-9-9--|
E|----9-9----9-99|   x12
(pause)Paul: "Use me!"

Bridge
G|-------|
D|-------|
A|-------|
E|-2--2-2|   x12

Verse
G|---------------|
D|---------------|
A|-9-9-9--9-9-9--|
E|----9-9----9-99|  x11
(pause)Paul: "Use me!"
Página 1 / 1

Letras e título
Acordes e artista

resetar configurações
OK