Cifra Club

Aprenda

I'm Your Villain

Franz Ferdinand

Tab de baixo: Versão 3
Intro
|-----------------------------------------------|x2
|-----------------------------------------------|
|-5-5-55-5-5—-5-5-55-5-5------------------------|
|------------------------5-5-55-5-5--5-5-55-5-5-|

Verse
|------------7-----------7---------------------|x2
|----------------------------------------------|
|-5-5-55-5-5--5-5-55-5-5-----------------------|
|-------------------------5-8-5-5-5--5-8-5-5-5-|

Bridge1
|------------7-10------------7-10-----------------------|x2
|-------------------------------------------------------|
|-5-5-55-5-5------5-5-55-5-5----------------------------|
|----------------------------------5-8-5-5-5--5-8-5-5-5-|

Versex2 then
|------------7-----------7---------------------------|
|-------------------------------------7------------7-|
|-5-5-55-5-5—-5-5-55-5-5-----------------------------|
|--------------------------5-5-55-5-5--5-5-55-5-5----|

Pre Chorus
|---------------------------------|
|---------------------------------|
|-3-3-3-3-3-3-3-3-5-5-5-5-5-5-5-5-|
|---------------------------------|

Chorus
|----------------------------------|x3
|-55555555555555558888888888888888-|
|----------------------------------|

|---------------------|
|---------------------|
|-55-55-88-88-------5-|
|-------------88-88---|

Versex2

Bridge1x2

Versex2 then
|------------7-----------7---------------------------|
|-------------------------------------7------------7-|
|-5-5-55-5-5—-5-5-55-5-5-----------------------------|
|--------------------------5-5-55-5-5--5-5-55-5-5----|

Pre Chorus2
|-----------------------------------------------------------------|
|-----------------------------------------------------------------|
|-3-3-3-3-3-3-3-3-5-5-5-5-5-5-5-5-6-6-6-6-6-6-6-6-6-6-6-6-6-6-6-6-|
|-----------------------------------------------------------------|

Outro
|----------------------------------|
|----------------------------------|
|----------------------------------|
|-55-555-555-5554322-222-222-22234-|

|-----------------------------------------|
|------------------------4444444444444444-|
|------7—-7-------7—-765------------------|
|-5555------55555-------------------------|
|-----------------------------6---6-------|x4

|------------------------44444-444-444444-|
|------7—-7-------7—-765------------------|
|-5555------55555-------------------------|

|--------------------------------------------|
|--------------------------------------------|
|--------------------------------------------|
|-55-55/-99-99/-55-55-55-55/-22-22/-99-999~--|
Composição de Alex Kapranos / Bob Hardy / Nick McCarthy / Paul Thomson
Colaboração e revisão:
  • Élison Duarte
11 exibições

0 comentários

Ver todos os comentários

Conseguiu tocar?

0 Tocaram 0 Ainda não

Grave um vídeo tocando I'm Your Villain e nos envie!

00:00 / 00:00
outros vídeos desta música
repetir qualidade Automático
Outros vídeos desta música
00:00 / 00:00
Automático

Cifra Club Pro

Aproveite o Cifra Club com benefícios exclusivos e sem anúncios
Cifra Club Pro
Aproveite o Cifra Club com benefícios exclusivos e sem anúncios
OK