Cifra Club

Aprenda

The dark of the matinee

Franz Ferdinand

Tab de baixo: Principal
intro

g|------------------------------------------------|
d|-----------4/-99-99-44-44------------4/-99-99-44|
a|44-44-44-44---------------44-44-44-44-----------|
e|------------------------------------------------|

entra a guitarra

g|---------------------------------------------------|
d|-----------4/-99-99-44-44------------4/-99-99-44-44|
a|44-44-44-44---------------44-44-44-44--------------|
e|---------------------------------------------------|

verso

g|-----------------------------------------------------------|
d|----------4/-99-99-44-44-44-44---------4/-99-99-44-44-44-44|
a|4------------------------------4---------------------------|
e|-----------------------------------------------------------|

g|22-22-22-22--------------------------------------------|
d|------------22-22-22-22--------------------------------|
a|------------------------2-2-2-2-2-2-2-2-5-5-5-5-5-5-5-5|
e|-------------------------------------------------------|

refrao

g|4-4-4-4-4-4-4-4-----------------4-4-4-4-4-4-4-4----------------|
d|---------------------------------------------------------------|
a|----------------5-5-5-5-5-5-5-5-----------------5-5-5-5-5-5-5-5|
e|---------------------------------------------------------------|

g|--------4444----|
d|7-----------4444|
a|----4-----------|
e|----------------|

antes do verso

g|---------------------------------------------------|
d|-----------4/-99-99-44-44------------4/-99-99-44-44|
a|44-44-44-44---------------44-44-44-44--------------|
e|---------------------------------------------------|

verso

g|-----------------------------------------------------------|
d|----------4/-99-99-44-44-44-44---------4/-99-99-44-44-44-44|
a|4------------------------------4---------------------------|
e|-----------------------------------------------------------|

g|22-22-22-22-------------22-22-22-22--------------------------------------------|
d|------------44-44-44-44-------------22-22-22-22--------------------------------|
a|------------------------------------------------2-2-2-2-2-2-2-2-5-5-5-5-5-5-5-5|
e|-------------------------------------------------------------------------------|

refrao

g|4-4-4-4-4-4-4-4-----------------4-4-4-4-4-4-4-4----------------|
d|---------------------------------------------------------------|
a|----------------5-5-5-5-5-5-5-5-----------------5-5-5-5-5-5-5-5|
e|---------------------------------------------------------------|

g|--------4444----|
d|7-----------4444|
a|----4-----------|
e|----------------|

parte lenta

g|---------------------------|------|2-------------|
d|----------4/-9---------9\-4|-(2x)-|-------------2|
a|4--------------------------|------|--------------|
e|---------------------------|------|--------------|

volta ao normal

g|-------------------------------|
d|-------------------------------|
a|2-2-2-2-2-2-2-2-5-5-5-5-5-5-5-5|
e|-------------------------------|

refrao

g|4-4-4-4-4-4-4-4-----------------4-4-4-4-4-4-4-4----------------|
d|---------------------------------------------------------------|  (2x)
a|----------------5-5-5-5-5-5-5-5-----------------5-5-5-5-5-5-5-5|
e|---------------------------------------------------------------|

g|--------4444-----|
d|7-----------4444-|
a|----4-----------4|
e|-----------------|
Composição de Alex Kapranos / Bob Hardy / Nick McCarthy / Paul Thomson
Colaboração e revisão:
  • Marcus Pereira
2.287 exibições

0 comentários

Mostrar mais comentários

Conseguiu tocar?

0 Tocaram 0 Ainda não

Grave um vídeo tocando The dark of the matinee e mande pra gente!

00:00 / 00:00
outros vídeos desta música
repetir qualidade Automático
Outros vídeos desta música
00:00 / 00:00
Automático

Cifra Club Pro

Aproveite o Cifra Club com benefícios exclusivos e sem anúncios
Cifra Club Pro
Aproveite o Cifra Club com benefícios exclusivos e sem anúncios
OK