Cifra Club

Meu Salvador

Fred Arrais

Cifra: Principal (violão e guitarra)
Tom: D
[Intro] D/F#  G  A
        D/F#  A  Bm A  G
        D/F#  A  Bm A  G

D              A/C#               Bm      A   G
  Eu não mereço   Tua misericórdia   Mas Tu vieste
D         A/C#            Bm     A         G   ( Em D/F# A)
  De longe   escutei Tua voz chamando meu nome

               Em  D  A                  Em    D   A
Deixou tudo o que tinha, para perdoar o mundo pecador

[Refrão]

D            A/C#         Em     A
  Meu Salvador, Meu Resgatador
D        A/C#        Em      A
  Redentor, Livraste a mim

     Em    D/F#      G          Em     D/F#    G
Me prostro aos teus pés, minha vida a Ti entrego
     Em    D/F#      G          Em     D/F#    G   A
Me prostro aos teus pés, minha vida a Ti entrego

[Solo] D/F#  A  Bm A  G

E|-----------------------------------------------------------------------|
B|-----------------------------------------------------------------------|
G|-7-9-9/11-11-9-9-7-7-9p7-9/11--9-9-11b12-11-9-9-7-7-9-9-----7h9-9------|
D|--------------------------------------------------------7h9-------7~~--|
A|-----------------------------------------------------------------------|
E|-----------------------------------------------------------------------|

E|-----------------------------------------------------------------------|
B|-----------------------------------------------------------------------|
G|-9/11-11-9-9-7-7-9p7-9/11--9-9-11b12-12-11---9-9-7-7-9-9-----7h9-9-----|
D|--------------------------------------------------------7h9-------7~~--|
A|-----------------------------------------------------------------------|
E|-----------------------------------------------------------------------|

E|-----------------------------------------------------------------------|
B|-----------------------------------------------------------------------|
G|-9/11-11-9-9-7-7-9p7-9/11-9-9-11-6-7h6-7/9-9b11-9-11rb9h11-9-----------|
D|-----------------------------------------------------------------------|
A|-----------------------------------------------------------------------|
E|-----------------------------------------------------------------------|

E|-------------10----10-17-17h15-14--------------|
B|-10b12-12-10----10----------------15/17/15-15--|
G|-----------------------------------------------|
D|-----------------------------------------------|
A|-----------------------------------------------|
E|-----------------------------------------------|

E|----------------------------14-15-17-17b19-17p15------------|
B|-------------------14-15-17----------------------17b19-19---|
G|----------12-14-16------------------------------------------|
D|-12-14-16---------------------------------------------------|
A|------------------------------------------------------------|
E|------------------------------------------------------------|

E|------------------------17----------------------------17b19-17--|
B|-15-15-17-17b19-17---17b19-19--15—17b19-15-17b19-15-------------|
G|----------------------------------------------------------------|
D|----------------------------------------------------------------|
A|----------------------------------------------------------------|
E|----------------------------------------------------------------|

E|-15p14p12----------------------------------------------------------------------|
B|----------15p14p12h14h15p14p12-------------------------------------------------|
G|-------------------------------14p12p11h12h14p12p11----------------------------|
D|----------------------------------------------------14p12p11h12h14p12p11-12/14-|
A|-------------------------------------------------------------------------------|
E|-------------------------------------------------------------------------------|

E|-------------------------------------------------------------------------------|
B|---------------------------------17b19-19-19-19-17-15-15-17-17b19-17-15-15h17--|
G|-------14h16----------14h16----------------------------------------------------|
D|-14h16-------14-14h16-------14-------------------------------------------------|
A|-------------------------------------------------------------------------------|
E|-------------------------------------------------------------------------------|

E|-14h15p14----------------------------------------------------------------------|
B|----------15-------------------------------------------------------------------|
G|-------------14-12-11h12p11----------------------------------------------------|
D|----------------------------14-12-11h12p11-------------------------11h12h14----|
A|-------------------------------------------14-12-10h12p10-10h12h14-------------|
E|-------------------------------------------------------------------------------|

E|-------------------------------------------------------|
B|-------------------------------------------------------|
G|-------------------11h12h14----------11h12h14-12-14-2--|
D|----------11h12h14----------11h12h14-------------------|
A|-10h12h14----------------------------------------------|
E|-------------------------------------------------------|

     Em    D/F#      G          Em     D/F#    G
Me prostro aos teus pés, minha vida a Ti entrego
     Em    D/F#      G          Em     D/F#    G   A
Me prostro aos teus pés, minha vida a Ti entrego
exibições 191.067
Acordes para:

    0 comentários

    mostrar mais comentários

    Conseguiu tocar?

    22 tocaram 4 ainda não

    Grave um vídeo tocando Meu Salvador e mande pra gente!

    00:00 / 00:00
    outros vídeos desta música
    repetir qualidade Automático
    Outros vídeos desta música
    00:00 / 00:00
    Automático
    OK