Cifra Club

Aprenda

Let It Go Tablatura Melodia

Frozen

Cifra: Principal (violão e guitarra)
Já pensou em usar uma coleção de roupas do Cifra Club? Responda as perguntas abaixo e nos ajude nessa missão! →
tom: G
E|--3-2-3-10-7-5------------
B|--------------------------
G|--------------------------
D|--------------------------
A|--------------------------
E|--------------------------

E|-3-0-0-0-0-2-3
B|--------------------------
G|--------------------------
D|--------------------------
A|--------------------------
E|--------------------------

E|-0-2-3-10-7-5-
B|--------------------------
G|--------------------------
D|--------------------------
A|--------------------------
E|--------------------------

E|-3-5-7-8-7-5-3-
B|--------------------------
G|--------------------------
D|--------------------------
A|--------------------------
E|--------------------------

E|-3-7-7-7-7-7-7-5-3-3-
B|--------------------------
G|--------------------------
D|--------------------------
A|--------------------------
E|--------------------------

E|-3-3-5-5-5-3-5-
B|--------------------------
G|--------------------------
D|--------------------------
A|--------------------------
E|--------------------------

E|-5-7-7-7-7-10-0-10-
B|--------------------------
G|--------------------------
D|--------------------------
A|--------------------------
E|--------------------------

E|-5-3-5-5-5-3-5-
B|--------------------------
G|--------------------------
D|--------------------------
A|--------------------------
E|--------------------------

E|-7-7-10-0-10-10-7-10-10-8-7-8-7-
B|--------------------------
G|--------------------------
D|--------------------------
A|--------------------------
E|--------------------------

E|-5-7-5-3-5-
B|--------------------------
G|--------------------------
D|--------------------------
A|--------------------------
E|--------------------------

E|-5-7-8-7-5-
B|--------------------------
G|--------------------------
D|--------------------------
A|--------------------------
E|--------------------------

E|-5-5-10-10-5-5-0-0-
B|--------------------------
G|--------------------------
D|--------------------------
A|--------------------------
E|--------------------------

E|-0-10-0-0-10-0-2-3-2-2-
B|--------------------------
G|--------------------------
D|--------------------------
A|--------------------------
E|--------------------------

E|-5-5-10-10-5-5-0-0-
B|--------------------------
G|--------------------------
D|--------------------------
A|--------------------------
E|--------------------------

E|-10-10-0-2-3-
B|--------------------------
G|--------------------------
D|--------------------------
A|--------------------------
E|--------------------------

E|-0-2-3-10-7-5
B|--------------------------
G|--------------------------
D|--------------------------
A|--------------------------
E|--------------------------

E|-5-0-0-0-0-2-3
B|--------------------------
G|--------------------------
D|--------------------------
A|--------------------------
E|--------------------------

E|-0-2-3-10-7-5
B|--------------------------
G|--------------------------
D|--------------------------
A|--------------------------
E|--------------------------

E|-3-5-7-8-7-5-3
B|--------------------------
G|--------------------------
D|--------------------------
A|--------------------------
E|---------------------------

E|-3-10-7-5-
B|--------------------------
G|--------------------------
D|--------------------------
A|--------------------------
E|--------------------------

E|-3-10-7-3
B|--------------------------
G|--------------------------
D|--------------------------
A|--------------------------
E|---------------------------

E|-0-2-3-10-7-5-
B|--------------------------
G|--------------------------
D|--------------------------
A|--------------------------
E|--------------------------

E|-3-8-8-7-8-8-7-8-7-3-
B|--------------------------
G|--------------------------
D|--------------------------
A|--------------------------
E|--------------------------

E|-3-5-7-7-7-5-3
B|--------------------------
G|--------------------------
D|--------------------------
A|--------------------------
E|--------------------------

E|-3-5-5-5-7-7-
B|--------------------------
G|--------------------------
D|--------------------------
A|--------------------------
E|--------------------------

E|-3-5-7-7-7-10-0-10-
B|--------------------------
G|--------------------------
D|--------------------------
A|--------------------------
E|--------------------------

E|-10-3-3-2-0-0-
B|--------------------------
G|--------------------------
D|--------------------------
A|--------------------------
E|--------------------------

0-0-0-0-2-3-0-
B|--------------------------
G|--------------------------
D|--------------------------
A|--------------------------
E|--------------------------

E|-10-10-7-10-7-0-
B|--------------------------
G|--------------------------
D|--------------------------
A|--------------------------
E|--------------------------

E|-0-0-0-0-0-2-3-10-
B|--------------------------
G|--------------------------
D|--------------------------
A|--------------------------
E|--------------------------

E|-7-10-3-0-3-0-5-
B|--------------------------
G|--------------------------
D|--------------------------
A|--------------------------
E|--------------------------

E|-0-2-3-10-7-5-
B|--------------------------
G|--------------------------
D|--------------------------
A|--------------------------
E|--------------------------

E|-5-0-0-0-0-2-3-
B|--------------------------
G|--------------------------
D|--------------------------
A|--------------------------
E|--------------------------

E|-0-2-3-10-7-5-
B|--------------------------
G|--------------------------
D|--------------------------
A|--------------------------
E|--------------------------

E|-3-5-7-8-7-5-3-
B|--------------------------
G|--------------------------
D|--------------------------
A|--------------------------
E|--------------------------

E|-3-5-3-5-
B|--------------------------
G|--------------------------
D|--------------------------
A|--------------------------
E|--------------------------

E|-3-5-5-5-5-3-
B|--------------------------
G|--------------------------
D|--------------------------
A|--------------------------
E|--------------------------

E|-3-5-3-5-
B|--------------------------
G|--------------------------
D|--------------------------
A|--------------------------
E|--------------------------

E|-10-3-5-8-7-5-3
B|--------------------------
G|--------------------------
D|--------------------------
A|--------------------------
E|--------------------------

E|-3-5-2-2-3-
B|--------------------------
G|--------------------------
D|--------------------------
A|--------------------------
E|--------------------------

E|-3-2-3-10-7-5-
B|--------------------------
G|--------------------------
D|--------------------------
A|--------------------------
E|--------------------------

E|-3-0-0-0-0-2-3-
B|--------------------------
G|--------------------------
D|--------------------------
A|--------------------------
E|--------------------------

E|-0-2-3-10-7-5-
B|--------------------------
G|--------------------------
D|--------------------------
A|--------------------------
E|--------------------------

E|-3-5-7-8-7-5-3-
B|--------------------------
G|--------------------------
D|--------------------------
A|--------------------------
E|--------------------------

E|-3-10-7-5-
B|--------------------------
G|--------------------------
D|--------------------------
A|--------------------------
E|--------------------------

E|-3-10-7-3-
B|--------------------------
G|--------------------------
D|--------------------------
A|--------------------------
E|--------------------------

E|-0-2-3-10-7-5-
B|--------------------------
G|--------------------------
D|--------------------------
A|--------------------------
E|--------------------------

E|-3-8-8-7-8-8-7-8-7-3-
B|--------------------------
G|--------------------------
D|--------------------------
A|--------------------------
E|--------------------------

Colaboração e revisão:
  • Denisson lucas
10.477 exibições
    • ½ Tom
    • A
    • Bb
    • B
    • C
    • Db
    • D
    • Eb
    • E
    • F
    • F#
    • G
    • Ab
  • Adicionar à lista

    0 comentários

    Ver todos os comentários

    Conseguiu tocar?

    1 Tocaram 3 Ainda não

    Grave um vídeo tocando Let It Go Tablatura Melodia e nos envie!

    00:00 / 00:00
    outros vídeos desta música
    repetir qualidade Automático
    Outros vídeos desta música
    00:00 / 00:00
    Automático

    Cifra Club Pro

    Aproveite o Cifra Club com benefícios exclusivos e sem anúncios
    Cifra Club Pro
    Aproveite o Cifra Club com benefícios exclusivos e sem anúncios
    OK