Enviar cifraEntrar

Diferentes dos Anjos

Fruto Sagrado

Cifra: Principal
exibições 162.356
Tom: B
Intro: B4  E5(9)  B4  E5(9)  G7M(9/13)  A6(9/11)

   B4        E4        B4        E5(9)
E|-----------------------------------------
B|-----------------------------------------
G|-----4---------4---------4---------4-----
D|---4---4-----4---4-----4---4-----4---4---
A|-2-------------------2-------------------
E|-----------0-------------------0---------


   G7M(9/13) A6(9/11)   G#m7(13)
E|----------------------0------------------
B|----------------------0------------------
G|-----4---------4------4------------------
D|---4---4-----4---4----4------------------
A|-----------0-----------------------------
E|-3--------------------4------------------


Primeira parte:
G#m7(13)         F#7(11+)/E
          Corri contra o tempo
           B4/D#      E
Atrás do vento sem saber viver
G#m7(13)             F#7(11+)/E
         Sem saber que desse mundo
 B4/D#      E
Nada, nada vou levar
G#m7(13)           F#7(11+)/E
         Me deixei enganar,
       B4/D#        E
Fui traído por meu coração
G#m7(13)             F#7(11+)/E
          Me deixei levar,
  B4/D#    E
Quase afundei na ilusão
G#m7(13)        F#7(11+)/E        B4/D#  E
         Ainda bem que você me achou
G#m7(13)        F#7(11+)/E      B4/D#         E
         Ainda bem         que você me incendiou!
G#m7(13)            F#7(11+)/E
         Você me tocou...
    B4/D#            E
Ressuscitou os meus sonhos
G#m7(13)            F#7(11+)/E
         Você me tocou...
        B4/D#         E
Trouxe vida ao meu deserto!
Dedilhado da Primeira parte:

 G#m7(13)   F#4(7)    B4/D#    E5(9)
E|-----------------------------------------
B|-----------------------------------------
G|-----4----------4---------4--------4-----
D|---4---4------4---4-----4---4----4---4---
A|----------------------6------------------
E|-4----------2------------------0---------

(variação)

 G#m7(13)   F#7(11)    B4/D#    E5(9)
E|-----------------------------------------
B|---------------0-------------------------
G|-----4-----------3---------4--------4----
D|---4---4------4----4-----4---4----4---4--
A|----------------------6------------------
E|-4----------2------------------0---------


 G#m7(13)     F#7(11)
E|-------0--0-------------0----------------
B|-------0--0-------------0----------------
G|-4--4--4--4---3---3--3--3---3--3---------
D|-4--4--4--4---4---4--4--4---4--4---------
A|-----------------------------------------
E|-4--4-----4---2---2--2------2--2---------


  G#m7(13)     F#7(11)
E|-------0--0-------------0----------------
B|-------0--0-------------0----------------
G|-4--4--4--4---3---3--3--3---3------------
D|-4--4--4--4---4---4--4--4---4------------
A|-----------------------------------------
E|-4--4-----4---2---2--2------2------------


 B4/D#        E5(9)
E|-------0--0---0---------0----------------
B|-------0--0---0---------0----------------
G|-4--4--4--4---4---4--4--4---4--4---------
D|-4--4--4--4---4---4--4--4---4--4---------
A|-6--6--6--6---7---7--7--7---7--7---------
E|--------------0---0--0--0---0--0---------


Refrão:
B4           G#m7(13)
   Agora eu sei
     F#7(11+)/E             E
A razão de a gente estar aqui
B4                              G#m7(13)
   O que nos faz diferentes dos anjos é o amor
   F#7(11+)/E        E
A possibilidade de amar...

Quero você!
Refrão:

   B4
E|-------0--0---0---------0----------------
B|-------0--0---0---------0----------------
G|-4--4--4--4---4---4--4--4---4--4---------
D|-4--4--4--4---4---4--4--4---4--4---------
A|-2--2--2--2---2---2--2--2---2--2---------
E|-----------------------------------------


   G#m7(13)
E|-------0--0---0---------0----------------
B|-------0--0---0---------0----------------
G|-4--4--4--4---4---4--4--4---4--4---------
D|-4--4--4--4---4---4--4--4---4--4---------
A|-----------------------------------------
E|-4--4--4--4---4---4--4--4---4--4---------


   F#4(7)
E|-------0--0---0---------0----------------
B|-------0--0---0---------0----------------
G|-4--4--4--4---4---4--4--4---4--4---------
D|-4--4--4--4---4---4--4--4---4--4---------
A|-----------------------------------------
E|-2--2--2--2---2---2--2--2---2--2---------


   E5(9)
E|-------0--0---0---------0----------------
B|-------0--0---0---------0----------------
G|-4--4--4--4---4---4--4--4---4--4---------
D|-4--4--4--4---4---4--4--4---4--4---------
A|-2--2--2--2---2---2--2--2---2--2---------
E|-0--0--0--0---0---0--0--0---0--0---------


   E5(9)
E|-0---------------------------------------
B|-0---------------------------------------
G|-4---------------------------------------
D|-4---------------------------------------
A|-2---------------------------------------
E|-0---------------------------------------


(Intro)

Primeira parte com variação na letra:
G#m7(13)        F#7(11+)/E
         Quero ser
       B4/D#             E
Muito mais que o seu melhor amigo
G#m7(13)     F#7(11+)/E   B4/D#     E
         Alguém em que você possa acreditar
G#m7(13)            F#7(11+)/E
         Quero revelar
        B4/D#          E
Meus defeitos sem ter medo
G#m7(13)             F#7(11+)/E
         Quero todo dia
      B4/D#     E
Aprender a te amar
G#m7(13)                F#7(11+)/E
         Foi como se a gente
    B4/D#         E
Soubesse que ia acontecer
G#m7(13)              F#7(11+)/E
         Só rolou certeza!
       B4/D#       E
A surpresa nem passou por perto

G#m7(13)            F#7(11+)/E
         Você me tocou...
    B4/D#            E
Ressuscitou os meus sonhos
G#m7(13)            F#7(11+)/E
         Você me tocou...
        B4/D#         E
Trouxe vida ao meu deserto!

(Refrão)

Segunda parte:
       A5(9)
Esse amor me livrou dos meus espinhos
   E
Tirou tanta pedra do caminho
      B4
Me levou pro paraíso...me ensinou a ser feliz
    A5(9)                       E
O amor me livrou dos meus espinhos...
G                      A5(9)
  Me levou pro paraíso...

   A5(9)
E|-0----0---0--0------0---0--0-------------
B|-0----0---0--0------0---0--0-------------
G|-2-2--2---2--2--2---2---2--2-------------
D|-2-2--2---2--2--2---2---2--2-------------
A|-0-0--0---------0---0---0--0-------------
E|-----------------------------------------


   E
E|-0----0---0--0------0---0--0-------------
B|-0----0---0--0------0---0--0-------------
G|-1-1--1---1--1--1---1---1--1-------------
D|-2-2--2---2--2--2---2---2--2-------------
A|-2-2--2---------2---2---2--2-------------
E|-0-0--0---------0---0---0--0-------------


   B4
E|-0--0---0--0--0--------------------------
B|-0--0---0--0--0--------------------------
G|-4--4---4--4--4--------------------------
D|-4--4---4--4--4--4-4--4-4-4--------------
A|-2--2---------2--0-2--5-2-0--------------
E|-----------------------------------------


   B4
E|-0--0---0--0--0--0----0------------------
B|-0--0---0--0--0--0----0------------------
G|-4--4---4--4--4--4----0------------------
D|-4--4---4--4--4--4-4--4------------------
A|-2--2---------2--2-2--2------------------
E|-----------------------------------------


   G                                  A5(9)
E|-3--3--3--3--x-x-x-x--3--3--x-3--x--0----
B|-3--3--3--3--x-x-x-x--3--3--x-3--x--0----
G|-0--0--0--0--x-x-x-x--0--0--x-0--x--2----
D|-0--0--0--0--x-x-x-x--0--0--x-0--x--2----
A|-2--2--2--2--x-x-x-x--2--2--x-2--x--0----
E|-3--3--3--3--x-x-x-x--3--3--x-3--x-------


   B4
E|---------------2-------------------------
B|-----0-----0-----------0-----0-----------
G|-------3-----------------3---------------
D|---4-----4---4-------4-----4---4---------
A|-2-----------------2---------------------
E|-----------------------------------------


E|---------------0-------------------------
B|-----0-----0-----------0-----0-----------
G|-------3-----------------3---------------
D|---4-----4---4-------4-----4-------------
A|-2-----------------2---------------------
E|-----------------------------------------


(Refrão) (2x)

(Intro)
  • 1
  • 2
  • 3
  • 4
  • 5
  • 6
  • 7
  • 8
  • 9
  • 10
  • 11
  • 12
    Acordes para:

      0 comentários

        mostrar mais comentários

        Conseguiu tocar?

        9tocaram1ainda não

        Grave um vídeo tocando Diferentes dos Anjos e mande pra gente!

        00:00 / 00:00
        outros vídeos desta música
        repetirqualidadeautomática
        • automática
        Outro vídeos desta música
          Capítulos
          • Início
          • Tocando a música
          • Acordes Introdução e Primeira Parte
          • Tocando Introdução e Primeira Parte
          • Ensinando Introdução
          • Ensinando Primeira Parte
          • Acordes do Refrão
          • Ensinando Refrão
          • Acordes da Segunda Parte
          • Tocando Segunda Parte - Final
          • Ensinando Segunda Parte
          • Encerramento
          00:00 / 00:00
          automática
          • automática
          Acordes para:violão e guitarra
          dificuldadeexibiçõescontribuições
          1 versão de Partiturasformatodownloadscontribuição
          fecharplay/pause subir/descer velocidade
            acordes
            fechar
            OK
            Feedback