Cifra Club

Nosso Grito

Fundo de Quintal

Cifra: Principal (violão e guitarra)
exibições 141.272
Tom: D
Intro:  A4  F7+ A7+/E ... ... D7+


E|--------------3/4--5---5/7--7---7/9---9--9--9----7--9---10--10/12-|
B|-9/10---8\5-------------------------------------------------------|
G|------------------------------------------------------------------|
D|--------------5/6--7---7/9--9---9/11--11-11-11---9--11--12--12/14-|
A|-11/12--10\7------------------------------------------------------|
E|------------------------------------------------------------------|

D7+
Você já não quer mais amar

Seu rumo tá sem direção
A7+
Se encontra perdido no cais

Querendo encontrar solução
D7+
Amigo não vá se entregar

Eu sei tá ruim de aguentar
A7+
Mas Deus está aqui para ajudar

Não deixa esse barco afundar


Refrão:

D7+
Êta vida, êta vida de cão
A7+
A gente ri, a gente chora, a gente abre o coração
D7+
Êta vida, êta vida de cão
A7+
A gente ri, a gente chora, a gente abre o coração
D7+                     A7+ ...
Êta vida, êta vida de cão


D7+
A gente tem mais que lutar

Seguir a nossa diretriz
A7+
Sonhar e tentar ser feliz

Viver pra cantar e sorrir
D7+
É hora de a gente assumir

É hora de darmos as mãos
A7+
Do negro ao branco se unir

Gritando numa só razão


Refrão

D7+
Êta vida, êta vida de cão
A7+
A gente ri, a gente chora, a gente abre o coração
D7+
Êta vida, êta vida de cão
A7+
A gente ri, a gente chora, a gente abre o coração
D7+
Êta vida, êta vida de cão



E|--------------3/4--7--2--3--4--|
B|-9/10---8\5--------------------|
G|-------------------------------|
D|--------------5/6--9--4--5--6--|
A|-11/12--10\7-------------------|
E|-------------------------------|
Acordes para:

    0 comentários

    mostrar mais comentários

    Conseguiu tocar?

    6 tocaram 3 ainda não

    Grave um vídeo tocando Nosso Grito e mande pra gente!

    00:00 / 00:00
    outros vídeos desta música
    repetir qualidade Automático
    Outros vídeos desta música
    00:00 / 00:00
    Automático
    OK