Cifra Club

Vai Lá, Vai Lá!

Fundo de Quintal

Cifra: Principal (violão e guitarra)
exibições 59.897
Tom: F
Introdução:
E|--------5---8----6-------------------------------------------------------------------------------------------------------|
B|------5-------------------------6---5---6---5----------------------------------------------------------------------------|
G|---5-----------------------------------------------7---5----7----5-------------------------------------------------------|
D|-------------------------------------------------------------------------8----7------------------------------------------|
A|-----------------------------------------------------------------------------------8-------------------------------------|
E|-------------------------------------------------------------------------------------------------------------------------|

E|-------------------------------------------------------------------------------------------------------------------------|
B|--------1-----1----------------------------------------------------------------------------------------------------------|
G|----------3------3------2-----0-----2----0-------------------------------------------------------------------------------|
D|---------------------------------------------------3-----2----0---2----0-------------------------------------------------|
A|-------------------------------------------------------------------------------3----1----0-------------------------------|
E|-----------------------------------------------------------------------------------------------3----1--------------------|

E|-------------------------------------------------------------------------------------------------------------------------|
B|-------------------------------------------------------------------------------------------------------------------------|
G|-------------------------------------------------------------------------------------------------------------------------|
D|-------------------------------------------------------------------------------------------------------------------------|
A|-------3--5-5---3--5-5---3--5-5—3-----3--5-5---3--5-5---3--5-5--3--------------------------------------------------------|
E|--------------------------------------------3--------------------------------------1-------------------------------------|
  
Gm C7 F D7 (7 vezes)
 
     Gm       C7
Vai lá vai lá  
            F  D7
Vai lá vai lá  
     Gm       C7
Vai lá vai lá  
            F  D7
Vai lá vai lá  
     Gm
Vai lá  
             C7       F
Vai lá no Cacique sambar  
               D7       Gm
Não fique de marra vem cá  
               C7        F
Não deixe essa onda quebrar  
              D7      Gm
Meu barco já vai navegar  
              C7  F  D7
Vou dar a partida  
    Gm       C7
Io io, io io  
    F       D7
Io io, io io  
    Gm       C7
Io io, io io  
    F       D7
Io io, io io  
     Gm
Vem cá  
              C7       F
Um pudim sem côco não dá  
                D7       Gm
Já estou preparando o jantar  
              C7     F
Tem pra sobremesa manjar  
              D7     Gm
Pimenta não pode faltar  
               C7          F    D7
Feijão sem tempero é ruim de aturar  
    Gm       C7
Io io, io io  
    F       D7
Io io, io io  
    Gm       C7
Io io, io io  
    F       D7
Io io, io io  
        Gm
É, pois é  
           C7          F
Estou procurando o José  
            D7            Gm
Ficou de me dar um qualquer  
              C7      F
Busquei na Bahia um axé  
         D7        Gm
De olho no acarajé  
             C7      F    D7
Ganhei uma preta no candomblé  
    Gm       C7
Io io, io io  
    F        D7
Io io, io io  
    Gm       C7
Io io, io io  
    F        D7
Io io, io io  
Ai, ai, ai ai
Acordes para:
    Colaboração e revisão:
    • Josley Coelho
    • Joao Leite

    0 comentários

    mostrar mais comentários

    Conseguiu tocar?

    6 tocaram 0 ainda não

    Grave um vídeo tocando Vai Lá, Vai Lá! e mande pra gente!

    00:00 / 00:00
    outros vídeos desta música
    repetir qualidade Automático
    Outros vídeos desta música
    00:00 / 00:00
    Automático
    OK