Cifra Club

Aprenda

Roses For The Dead

Funeral For a Friend

Cifra: Principal (violão e guitarra)
Tom: B
    T T T  T T T  T T T  T   T  T T  T
D#|-----------------------------------------|           |
A#|--------------------------12-------------|           |
F#|-----12-----11--------------------11/12--| 2X        |
C#|---5------5----7---12--------9-----------|           |
G#|-7------7--------5----5/7------7---------|           |
C#|-----------------------------------------|           |
    T T T  T T T  T T T  T   T  T T  T                  |
D#|-----------------------------------------|           |
A#|-----------------------------------------|           |
F#|-----12-----11-------------12-----11/12--|           |
C#|---5----5------5---12---------9----------|           | 4x
G#|-3--------3------3-----5/3------3--------|           |
C#|-----------------------------------------|           |
    T T T  T T T  T T T  T   T  T T  T                  |
D#|-----------------------------------------|           |
A#|--------------------------12-------------|           |
F#|-----12-----11--------------------11/12--|           |
C#|---7----7------7---12--------9-----------|           |
G#|-5--------5------5----5/7------7---------|           |
C#|-----------------------------------------|           |

D#|----------------------------------------------------------------------------------------------------|
A#|----------------------------------------------------------------------------------------------------|
F#|-12121212-111111111111-1212121212-1414141414-1616161616-1919191919-1717171717-1616161616-1414141414-|
C#|-xxxxxxxx-xxxxxxxxxxx--xxxxxxxxxx-xxxxxxxxxx-xxxxxxxxxx-xxxxxxxxxx-xxxxxxxxxx-xxxxxxxxxx-xxxxxxxxxx-| 2X
G#|-10101010-9-9-9-9-9-9--1010101010-1212121212-1414141414-1717171717-1515151515-1414141414-1212121212-|
C#|----------------------------------------------------------------------------------------------------|

D#|-----------------------------------------|            
A#|-----------------------------------------|            
F#|-121212-|-121212-|-121212-|-121212-|-----|            
C#|-141414-|-141414-|-141414-|-141414-|-----|           
G#|-----------------------------------------|                
C#|-----------------------------------------|                
                                                        |      
D#|-----------------------------------------|           |    
A#|-121212-|-121212-|-121212-|-121212-|-----|           |      
F#|-121212-|-121212-|-121212-|-121212-|-----|           |   
C#|-141414-|-141414-|-141414-|-141414-|-----|           |   
G#|-----------------------------------------|           |     
C#|-----------------------------------------|           |      
                                                        |  
D#|-----------------------------------------|           |    
A#|--8-8-8-|--8-8-8-|--8-8-8-|--8-8-8-|-----|           |  
F#|--9-9-9-|--9-9-9-|--9-9-9-|--9-9-9-|-----|           |  
C#|-101010-|-101010-|-101010-|-101010-|-----|           |  2x  
G#|-----------------------------------------|           |  
C#|-----------------------------------------|           |      
                                                        |         
D#|-----------------------------------------|           |     
A#|-101010-|-101010-|-101010-|-101010-|-----|           |        
F#|-111111-|-111111-|-111111-|-111111-|-----|           |       
C#|-121212-|-121212-|-121212-|-121212-|-----|           |      
G#|-----------------------------------------|           |      
C#|-----------------------------------------|           |          
                                                        |        
D#|-----------------------------------------|           |        
A#|-101010-|-101010-|-101010-|-101010-|-----|           |      
F#|-111111-|-111111-|-111111-|-111111-|-----|           |      
C#|-121212-|-121212-|-121212-|-121212-|-----|           |       
G#|-----------------------------------------|              
C#|-----------------------------------------| 

      2x          2x        2x        2x         2x        2x         2x        2x
D#|-----------------------------------------------------------------------------------------------------|
A#|-----------------------------------------------------------------------------------------------------|
F#|-17171717--19191919--16161616--14141414--16161616--17171717--19191919--16161616--14141414--16161616--|
C#|-xxxxxxxx--xxxxxxxx--xxxxxxxx--xxxxxxxx--xxxxxxxx--xxxxxxxx--xxxxxxxx--xxxxxxxx--xxxxxxxx--xxxxxxxx--|
G#|-15151515--17171717--14141414--12121212--14141414--15151515--17171717--14141414--12121212--14141414--|
C#|-----------------------------------------------------------------------------------------------------|

D#|-----------------------------------------|
A#|-----------------------------------------|
F#|-----------------------------------------|
C#|-2~~~~~~~~~~~~~~~~~~~~~~~~~~~~~~~~~~~~~~-|
G#|-2~~~~~~~~~~~~~~~~~~~~~~~~~~~~~~~~~~~~~~-|
C#|-2~~~~~~~~~~~~~~~~~~~~~~~~~~~~~~~~~~~~~~-|

    T T T  T T T  T T T  T   T  T T  T
D#|-----------------------------------------|           
A#|--------------------------12-------------|           
F#|-----12-----11--------------------11/12--| 2X
C#|---5------5----7---12--------9-----------|           
G#|-7------7--------5----5/7------7---------|           
C#|-----------------------------------------|           
    T T T  T T T  T T T  T   T  T T  T                  
D#|-----------------------------------------|           
A#|-----------------------------------------|           
F#|-----12-----11-------------12-----11/12--|   
C#|---5----5------5---12---------9----------|            
G#|-3--------3------3-----5/3------3--------|   
C#|-----------------------------------------|   
    T T T  T T T  T T T  T   T  T T  T                  
D#|-----------------------------------------|           
A#|--------------------------12-------------|           
F#|-----12-----11--------------------11/12--|   
C#|---7----7------7---12--------9-----------|           
G#|-5--------5------5----5/7------7---------|           
C#|-----------------------------------------|           
    T T T  T T T  T T T  T   T  T T  T
D#|-----------------------------------------|           
A#|--------------------------12-------------|           
F#|-----12-----11--------------------11/12--| 2X        
C#|---5------5----7---12--------9-----------|           
G#|-7------7--------5----5/7------7---------|           
C#|-----------------------------------------|           
    T T T  T T T  T T T  T   T  T T  T                  
D#|-----------------------------------------|           
A#|-----------------------------------------|           
F#|-----12-----11-------------12-----11/12--|   
C#|---5----5------5---12---------9----------|           
G#|-3--------3------3-----5/3------3--------|   
C#|-----------------------------------------|   

D#|-----------------------------------------|
A#|-----------------------------------------|
F#|-7~~~~~~~~~~~~~~~~~~~~~~~~~~-------------|
C#|-7~~~~~~~~~~~~~~~~~~~~~~~~~~-------------|
G#|-5~~~~~~~~~~~~~~~~~~~~~~~~~~-------------|
C#|-----------------------------------------|

D#|-----------------------------------------|            
A#|-----------------------------------------|            
F#|-121212-|-121212-|-121212-|-121212-|-----|            
C#|-141414-|-141414-|-141414-|-141414-|-----|   
G#|-----------------------------------------|               
C#|-----------------------------------------|               
                                                             
D#|-----------------------------------------|           |    
A#|-121212-|-121212-|-121212-|-121212-|-----|           |      
F#|-121212-|-121212-|-121212-|-121212-|-----|           |   
C#|-141414-|-141414-|-141414-|-141414-|-----|           |   
G#|-----------------------------------------|           |     
C#|-----------------------------------------|           |      
                                                        |  
D#|-----------------------------------------|           |    
A#|--8-8-8-|--8-8-8-|--8-8-8-|--8-8-8-|-----|           |  
F#|--9-9-9-|--9-9-9-|--9-9-9-|--9-9-9-|-----|           |  
C#|-101010-|-101010-|-101010-|-101010-|-----|           |  2x  
G#|-----------------------------------------|           |  
C#|-----------------------------------------|           |      
                                                        |         
D#|-----------------------------------------|           |     
A#|-101010-|-101010-|-101010-|-101010-|-----|           |        
F#|-111111-|-111111-|-111111-|-111111-|-----|           |       
C#|-121212-|-121212-|-121212-|-121212-|-----|           |      
G#|-----------------------------------------|           |      
C#|-----------------------------------------|           |          
                                                        |        
D#|-----------------------------------------|           |        
A#|-101010-|-101010-|-101010-|-101010-|-----|           |      
F#|-111111-|-111111-|-111111-|-111111-|-----|           |      
C#|-121212-|-121212-|-121212-|-121212-|-----|           |       
G#|-----------------------------------------|              
C#|-----------------------------------------|            

        2x        2x        2x          2x       2x        2x         2x        2x
D#|-----------------------------------------------------------------------------------------------------|
A#|-----------------------------------------------------------------------------------------------------|
F#|-17171717--19191919--16161616--14141414--16161616--17171717--19191919--16161616--14141414--16161616--|
C#|-xxxxxxxx--xxxxxxxx--xxxxxxxx--xxxxxxxx--xxxxxxxx--xxxxxxxx--xxxxxxxx--xxxxxxxx--xxxxxxxx--xxxxxxxx--|
G#|-15151515--17171717--14141414--12121212--14141414--15151515--17171717--14141414--12121212--14141414--|
C#|-----------------------------------------------------------------------------------------------------|

parte lenta
D#|-----------------------------------------|
A#|-----------------------------------------|
F#|-17171717--19191919--16161616--14141616--|
C#|-xxxxxxxx--xxxxxxxx--xxxxxxxx--xxxxxxxx--| 3X
G#|-15151515--17171717--14141414--12121414--|
C#|-----------------------------------------|

D#|-----------------------------------------------------------|
A#|-----------------------------------------------------------|
F#|-1717171717-191919-212121-2222-212121-19-19-19----17---19--|
C#|-xxxxxxxxxx-xxxxxx-xxxxxx-xxxx-xxxxxx-xx-xx-xx----xx---xx--|
G#|-1515151515-171717-191919-2020-191919-17-17-17----15---17--|
C#|-----------------------------------------------------------|

volta ao normal
D#|----------------------------------------------------------------------------------------|
A#|----------------------------------------------------------------------------------------|
F#|-17171717-17171717-191919-21212121-222222-24-24-24-24-22222222-21212121-19191919191919--|
C#|-xxxxxxxx-xxxxxxxx-xxxxxx-xxxxxxxx-xxxxxx-xx-xx-xx-xx-xxxxxxxx-xxxxxxxx-xxxxxxxxxxxxxx--| 2x
G#|-15151515-15151515-171717-19191919-202020-22-22-22-22-20202020-19191919-17171717171717--|
C#|----------------------------------------------------------------------------------------|

D#|-------------------------------------------------------------------------|
A#|--------------------------------------------202020-181818-171717---------|
F#|-17171717-17171717-191919-21212121-22222222-xxxxxx-xxxxxx-xxxxxx---------|
C#|-xxxxxxxx-xxxxxxxx-xxxxxx-xxxxxxxx-xxxxxxxx-171717-151515-141414---------|
G#|-15151515-15151515-171717-19191919-20202020-----------------------3-3-3--|
C#|------------------------------------------------------------------3-3-3--|
                                                                        x x x
Composição de Funeral for a Friend
Colaboração e revisão:
  • Ramon Borges
4.854 exibições
    • ½ Tom
    • A
    • Bb
    • B
    • C
    • Db
    • D
    • Eb
    • E
    • F
    • F#
    • G
    • Ab
  • Adicionar à lista

    0 comentários

    Mostrar mais comentários

    Conseguiu tocar?

    0 Tocaram 0 Ainda não

    Grave um vídeo tocando Roses For The Dead e mande pra gente!

    00:00 / 00:00
    outros vídeos desta música
    repetir qualidade Automático
    Outros vídeos desta música
    00:00 / 00:00
    Automático

    Cifra Club Pro

    Aproveite o Cifra Club com benefícios exclusivos e sem anúncios
    Cifra Club Pro
    Aproveite o Cifra Club com benefícios exclusivos e sem anúncios
    OK