Cifra Club

Do Seu Coração Sou Dono

Gabriel Diniz

Cifra: Principal (violão e guitarra)
exibições 38.124
Tom: Ab (forma dos acordes no tom de G) Capotraste na 1ª casa
Intro 2x: C9  G  Am7

Primeira parte:
C9
Ela se olha no espelho 
Arruma o cabelo
Se acha bonita 
             G
Sai com as amigas
C9
Ela não tem compromisso
E é livre pra viver 
       G
A sua vida

Segunda parte:
Am7
Aparentemente, está tudo bem
Em7                                     C9
Mas ela vai ligar, quando lembrar que sou eu
             Em    (D)
Que faz ela feliz
Am7
Atrás da maquiagem, esconde um sentimento
Em7
Que não da pra negar
                     C9
Não sabe negar que sou eu
              Em
Que faz ela feliz

Refrão:
G                               D      C9
Pode passar um, dois, três, dez anos ou mais
                       Em
Do seu coração eu sou dono
             D
Oh, oh, oh, dono
             G
Oh, oh, oh, dono

Solo 1:
E|----------------------------------------------------------------------|
B|-7/8--7-----------7/8--7--10--8-------7/8--7--------------------------|
G|---------9--7---------------------------------9--7----4---2-----------|   
D|----------------------------------------------------------------------|
A|----------------------------------------------------------------------|
E|----------------------------------------------------------------------|
 
( Am7  Em  Am7  Em  D )

Segunda parte:
Am7
Aparentemente, está tudo bem
Em7                                     C9
Mas ela vai ligar, quando lembrar que sou eu
             Em    (D)
Que faz ela feliz
Am7
Atrás da maquiagem, esconde um sentimento
Em7
Que não da pra negar
                     C9
Não sabe negar que sou eu
              Em
Que faz ela feliz

Am7
Aparentemente, está tudo bem
Em7                                     C9
Mas ela vai ligar, quando lembrar que sou eu
             Em    (D)
Que faz ela feliz
Am7
Atrás da maquiagem, esconde um sentimento
Em7
Que não da pra negar
                     C9
Não sabe negar que sou eu
              Em
Que faz ela feliz

Refrão 2x:
G                               D      C9
Pode passar um, dois, três, dez anos ou mais
                       Em
Do seu coração eu sou dono
             D
Oh, oh, oh, dono
             G
Oh, oh, oh, dono

Solo 2:
E|----------------------------------------------------------------------|
B|-7/8--7---------------------------------------------------------------|
G|---------9--7----4---2------------------------------------------------|   
D|----------------------------------------------------------------------|
A|----------------------------------------------------------------------|
E|----------------------------------------------------------------------|

Refrão:
G                               D      C9
Pode passar um, dois, três, dez anos ou mais
                       Em
Do seu coração eu sou dono
             D
Oh, oh, oh, dono
             G
Oh, oh, oh, dono

Am7 Em
Acordes para:
    Composição: Gabriel Diniz Colaboração e revisão:

    0 comentários

    mostrar mais comentários

    Conseguiu tocar?

    2 tocaram 0 ainda não

    Grave um vídeo tocando Do Seu Coração Sou Dono e mande pra gente!

    00:00 / 00:00
    outros vídeos desta música
    repetir qualidade Automático
    Outros vídeos desta música
    00:00 / 00:00
    Automático
    OK