Cifra Club

Todos Os Meus Dias

Gabriel Guedes

Cifra: Principal (violão e guitarra)
tom: Ebm (forma dos acordes no tom de Em) Afinação: Eb Ab Db Gb Bb Eb
[Intro] Am7  Em  G  D11

[Tab - Dedilhado]

   Am7                  Em
E|------------------------------------------|
B|-------1-x-1--x-1-----------0-x-0--x-0----|
G|-----0---x-0--x-0---------0---x-0--x-0----|
D|---2-----x-2--x----2----2-----x-2--x------|
A|-0-------x-0--x---------------------------|
E|----------------------0-------x-0--x----0-|

   G                    D11
E|------------------------------------------|
B|-------0-x-0--x-0-----------7-x-7--x-7----|
G|-----0---x-0--x-0---------0---x-0--x-0----|
D|---0-----x-0--x----0----0-----x-0--x------|
A|----------------------5-------x-5--x------|
E|-3-------x-3--x---------------------------|

[Tab - Solo]

E|------------------------------------------|
B|----------------------7h8p7p5-------------|
G|-5p4~---2/4~---4\2~-----------7-5~--------|
D|------------------------------------------|
A|------------------------------------------|
E|------------------------------------------|

[Primeira Parte] 

Am7                    Em
    Ó Senhor Tu me sondas 
                  G
De longe me percebes
                           D11
Sabes tudo que quero Te falar
                               Am7
Em Tua mão tens todos os meus dias
                 Em                G
Se eu subir aos céus ou descer ao mar 
                          D11
Mesmo ali Tua mão me guiará
 
Tu és a resposta 

[Refrão] 

    Am7     Em
Eu não temerei 
      G
Pois Tu estás comigo, eu sei
                D11
Nada vai me faltar

 Am7     Em
Não temerei 
    G
Em meio a tempestade 
                        D11
Eu sei, não irei naufragar
                    Am7
Tens todos os meus dias

( Em  G  D11 )

[Primeira Parte] 

Am7                    Em
    Ó Senhor Tu me sondas 
                  G
De longe me percebes
                           D11
Sabes tudo que quero Te falar
                               Am7
Em Tua mão tens todos os meus dias
                 Em                G
Se eu subir aos céus ou descer ao mar 
                          D11
Mesmo ali Tua mão me guiará
 
Tu és a resposta 

[Refrão] 

    Am7     Em
Eu não temerei 
      G
Pois Tu estás comigo, eu sei
                D11
Nada vai me faltar

 Am7     Em
Não temerei 
    G
Em meio a tempestade 
                        D11
Eu sei, não irei naufragar

    Am7     Em
Eu não temerei 
      G
Pois Tu estás comigo, eu sei
                D11
Nada vai me faltar

 Am7     Em
Não temerei 
    G
Em meio a tempestade 
                        D11
Eu sei, não irei naufragar

[Final] 

                    Am7  Em
Tens todos os meus dias
                    G   D11
Tens todos os meus dias
                    Am7     Em
Tens todos os meus dias, eu    sei
                    G   D11
Tens todos os meus dias

Tens todos os meus dias
00:00 / 00:00
Outros vídeos desta música
Repetir
Outros vídeos desta música
Composição de Gabriel Guedes
Colaboração e revisão:
  • Victor Alves
  • David'Souza
  • lucas darilo
20.077 exibições
  • Simplificar cifra
    • ½ Tom
    • Am
    • Bbm
    • Bm
    • Cm
    • C#m
    • Dm
    • Ebm
    • Em
    • Fm
    • F#m
    • Gm
    • G#m
  • Adicionar à lista

    0 comentários

    Ver todos os comentários

    Conseguiu tocar?

    1 Tocaram 0 Ainda não

    Grave um vídeo tocando Todos Os Meus Dias e nos envie!

    Entre para oCifra Club PRO

    Tenha acesso a benefícios exclusivos no App e no Site

    • Chega de anúncios

    • Prioridade de compra em lançamentos

    • Mais recursos no app do Afinador

    • Atendimento Prioritário

    • Descontos nos produtos Cifra Club

    • Ajude a produzir mais conteúdo

    00:00 / 00:00

    Cifra Club Pro

    Aproveite o Cifra Club com benefícios exclusivos e sem anúncios
    Cifra Club Pro
    Aproveite o Cifra Club com benefícios exclusivos e sem anúncios
    OK