Cifra Club

Estudo errado

Gabriel O Pensador

Tab de baixo: Principal
Ae galera, sou novo por aqui no cifraclub, 
toco baixo a um ano e pouco e essa é a minha primeira tab, 
msm que não esteja totalmente certa (no msm tom e etc), 
acho que ta bem parecido, qualquer coisa façam adaptações e se quiserem, 
entrem em contato ;)

elias.guerra@gmail.com

Acho que nós baixistas brasileiros devemos tentar divulgar 
mais tabs de musicas brazucas! Msm que não estejam completas e talz, 
já dá uma ajuda xD


Riff 1

G----------------------
D----------------------
A-------3-3-5--5-3-3---
E--5--5--------------5-

Riff 2

G-----------------------
D----------3-6------3-6-
A--4-4-4-4------4-4-----
E-----------------------

G----------------3---
D------------4-4---4-
A--4-6-6-6-6---------
E--------------------
Composição de Gabriel / O Pensador
Colaboração e revisão:
  • Elias Castro
9.590 exibições

0 comentários

Ver todos os comentários

Conseguiu tocar?

0 Tocaram 0 Ainda não

Grave um vídeo tocando Estudo errado e nos envie!

00:00 / 00:00
Outros vídeos desta música
Repetir Qualidade Automático
Outros vídeos desta música
00:00 / 00:00
Automático

Cifra Club Pro

Aproveite o Cifra Club com benefícios exclusivos e sem anúncios
Cifra Club Pro
Aproveite o Cifra Club com benefícios exclusivos e sem anúncios
OK