Linhas Tortas

Gabriel O Pensador

Composição de: André Gomes / Gabriel o Pensador
tom: G
E|--------7-----5-----3----------------------------------------------------------------3--------------3-| 
B|----8-----7----5--------4-----Em--------------------------------------------0------------0------------| 
G|---------------------------------------2---5--2--4------2--4--2-----------------0------------0--------| 
D|----------------------------------------------------------------------2-------------------------------| 
A|------------------------------------------------------------------------------------------------------| 
E|------------------------------------------------------------------------------------------------------| 

E|-7--7--5--5--3--3--3--3--------------------------------------------------------------------------------| 
B|-0--0--7--7--5--5--4--4------------------0----------0------0-------------------------------------------|
G|-------------------------------------------4----------2----------0-------------------------------------| 
D|----------------------------------------5---------4-----------2----------------------------------------| 
A|-------------------------------------------------------------------------------------------------------| 
E|-------------------------------------------------------------------------------------------------------| 

E os acordes de base são Em e Bm.
Página 1 / 1

Letras e título
Acordes e artista

resetar configurações
OK