Cifra Club

Lugar Secreto

Gabriela Rocha

Cifra: Principal
exibições 211.730
Tom: C
[Intro]  F  Am7  G
         F  Am7  G

      F                      Am  G
E|--------------------------------|
B|-13-12-13----13----13-----------|
G|----------12----10----9-5-5h7~--|
D|--------------------------------|
A|--------------------------------|
E|--------------------------------|

F9        Am7                 G
  Tu és tudo o que eu mais quero
F9        Am7      G
  O meu fôlego tu és 
F9           Am7        G
  Em Teus braços é o meu lugar 
         F9     Am7   G
Estou aqui, estou aqui

F9         Am7         G
  Pai, eu amo sua presença 
F9         Am7            G
  Teu sorriso é vida em mim
F9       Am7          G
  Eu seguro em suas mãos 
           F9      Am7    G
Confio em Ti, confio em Ti

               F9                   Dm7
Quero ir mais fundo, leva-me mais perto 
              Am7                Em7
Onde eu Te encontro no lugar secreto
                 F9
Aos Teus pés me rendo 
             Dm7         Am7  G
Pois a Tua glória quero ver 

[Solo]  F7M  Dm7  Am  Em7
        F7M  Dm7  Am  Em7

                F7M         Dm7         Am      Em7
E|---------------------------------5-5-5h7-----|
B|-----5-8-5-5-----5-8-5-5-----5-8---------5~--|
G|-5-7---------5-7---------5-7-----------------|
D|---------------------------------------------|
A|---------------------------------------------|
E|---------------------------------------------|

F9         Am7         G
  Pai, eu amo sua presença 
F9         Am7            G
  Teu sorriso é vida em mim
F9       Am7          G
  Eu seguro em suas mãos 
           F      Am7    G
Confio em Ti, confio em Ti

               F                   Dm7
Quero ir mais fundo, leva-me mais perto 
              Am7                Em7
Onde eu Te encontro no lugar secreto
                 F
Aos Teus pés me rendo 
             Dm7         Am7  G
Pois a Tua glória quero ver 
               F                   Dm7
Quero ir mais fundo, leva-me mais perto 
              Am7                Em7
Onde eu Te encontro no lugar secreto
                 F
Aos Teus pés me rendo 
             Dm7         Am7  G
Pois a Tua glória quero ver 
                    
                     F
Tudo o que eu mais quero é Te ver 
                     Dm7
Me envolva com tua Glória e poder 
          Am7
Tua Majestade é Real 
          Em7
Tua voz ecoa em meu ser
                     F
Tudo o que eu mais quero é Te ver 
                     Dm7
Me envolva com tua Glória e poder 
          Am7
Tua Majestade é Real 
          Em7
Tua voz ecoa em meu ser

               F                   Dm7
Quero ir mais fundo, leva-me mais perto 
              Am7                Em7
Onde eu Te encontro no lugar secreto
                 F
Aos Teus pés me rendo 
             Dm7         Am7  G
Pois a Tua glória quero ver 
                    
[Final]  F7M  Dm7  Am  Em7
         F7M  Dm7  Am  Em7  F7M

                F7M         Dm7         Am      Em7
E|-----------------------------|  E|------------------------------|
B|-----5-8-10-10-----5-8-10-10-|  B|-10-8-5-8-5-5--10-8-5-8-5--3~-|
G|-5-7-----------5-7-----------|  G|------------------------------|
D|-----------------------------|  D|------------------------------|
A|-----------------------------|  A|------------------------------|
E|-----------------------------|  E|------------------------------|

               F7M          Dm7         Am      Em7
E|-----------------------------|  E|------------------------------|
B|-----5-8-10-10-----5-8-10-10-|  B|-10-10/12-12-13--13-12--------|
G|-5-7-----------5-7-----------|  G|------------------------------|
D|-----------------------------|  D|------------------------------|
A|-----------------------------|  A|------------------------------|
E|-----------------------------|  E|------------------------------|

                    F7M                Dm7
E|--------------------------------------------------------|          
B|----13-12-10-8-10-10-10-10---13-13-12-10-8-10-10-10-10--|                      
G|--------------------------------------------------------|                      
D|--------------------------------------------------------|              
A|--------------------------------------------------------|                      
E|--------------------------------------------------------|

                    Am                 Em7
E|-------------------------------------------------|  
B|----13-12-10-8-5-5--8-8----13-12-10-8-5-5--8-8---| 
G|-------------------------------------------------|  
D|-------------------------------------------------|  
A|-------------------------------------------------|  
E|-------------------------------------------------|
Acordes para:

    0 comentários

      mostrar mais comentários

      Conseguiu tocar?

      18tocaram6ainda não

      Grave um vídeo tocando Lugar Secreto e mande pra gente!

      00:00 / 00:00
      outros vídeos desta música
      repetirqualidadeAutomático
      Outro vídeos desta música
        00:00 / 00:00
        OK