Lugar Secreto

Gabriela Rocha

Tom: C
[Intro]  F  Am  G
         F  Am  G

  F        Am                 G
  Tu és tudo o que eu mais quero
 F        Am      G
  O meu fôlego tu és
 F           Am        G
  Em Teus braços é o meu lugar
         F    Am   G
Estou aqui, estou aqui

F         Am        G
  Pai, eu amo sua presença
F        Am           G
  Teu sorriso é vida em mim
F       Am          G
  Eu seguro em suas mãos eu
           F      Am    G
Confio em Ti, confio em Ti

               F                  Dm
Quero ir mais fundo, leva-me mais perto
              Am                Em
Onde eu Te encontro no lugar secreto
                 F
Aos Teus pés me rendo
             Dm        Am  G
Pois a Tua glória eu quero ver

[Solo]  F7M  Dm7  Am  Em7
        F7M  Dm7  Am  Em7

F         Am         G
  Pai, eu amo sua presença
F         Am            G
  Teu sorriso é vida em mim
F       Am          G
  Eu seguro em suas mãos
           F      Am    G
Confio em Ti, confio em Ti

               F                   Dm
Quero ir mais fundo, leva-me mais perto
              Am                Em
Onde eu Te encontro no lugar secreto
                 F
Aos Teus pés me rendo
             Dm         Am  G
Pois a Tua glória quero ver
               F                   Dm
Quero ir mais fundo, leva-me mais perto
              Am                Em
Onde eu Te encontro no lugar secreto
                 F
Aos Teus pés me rendo
             Dm         Am  G
Pois a Tua glória eu quero ver

                     F
Tudo o que eu mais quero é Te ver
                     Dm
Me envolva com tua Glória e poder
          Am
Tua Majestade é Real
          Em
Tua voz ecoa em meu ser
                     F
Tudo o que eu mais quero é Te ver
                     Dm
Me envolva com tua Glória e poder
          Am
Tua Majestade é Real
          Em
Tua voz ecoa em meu ser

               F                   Dm
Quero ir mais fundo, leva-me mais perto
              Am                Em
Onde eu Te encontro no lugar secreto
                 F
Aos Teus pés me rendo
             Dm         Am  G
Pois a Tua glória eu quero ver

[Final]  F7M  Dm7  Am  Em7
         F7M  Dm7  Am  Em7  F7M

                    F7M    Dm7         Am      Em7
E|-----------------------------------------------------------|
B|-----5-8-10-10-----5-8-10-10--10-8-5-8-5-5--10-8-5-8-5--3~-|
G|-5-7-----------5-7-----------------------------------------|
D|-----------------------------------------------------------|
A|-----------------------------------------------------------|
E|-----------------------------------------------------------|

                   F7M     Dm7         Am      Em7
E|-----------------------------------------------------------|
B|-----5-8-10-10-----5-8-10-10--10-10/12-12-13--13-12--------|
G|-5-7-----------5-7-----------------------------------------|
D|-----------------------------------------------------------|
A|-----------------------------------------------------------|
E|-----------------------------------------------------------|

                        F7M                Dm7
E|--------------------------------------------------------|
B|----13-12-10-8-10-10-10-10---13-13-12-10-8-10-10-10-10--|
G|--------------------------------------------------------|
D|--------------------------------------------------------|
A|--------------------------------------------------------|
E|--------------------------------------------------------|

                        Am                 Em7
E|-------------------------------------------------|
B|----13-12-10-8-5-5--8-8----13-12-10-8-5-5--8-8---|
G|-------------------------------------------------|
D|-------------------------------------------------|
A|-------------------------------------------------|
E|-------------------------------------------------|
Página 1 / 1

Letras e título
Acordes e artista

resetar configurações