Tugboat

Galaxie 500

Composição de: Damon Krukowski / Dean Wareham / Galaxie 500 / Naomi Yang
tom: G Afinação: E A D G B E
easy song to play. Enjoy

Chords through whole song (Listen to the song for rhythm)

E||--3----------------|--3----------------|
B||--0----------------|--0----------------|
G||--0----------------|--0----------------|
D||--0----------------|--2----------------|
A||--2----------------|--2----------------|
E||--3----------------|--0----------------|

Main Rift

E||-----------------------|-----------------------|-----------------------|
B||-----------------------|-----------------------|-----------------------|
G||--7------7----7--5--7--|--5------5----5--4--5--|--4------4----4--2--4--|
D||-----------------------|-----------------------|-----------------------|
A||-----------------------|-----------------------|-----------------------|
E||-----------------------|-----------------------|-----------------------|

-----------------------|
-----------------------|
--2------2----2--0--2--|
-----------------------|
-----------------------|
-----------------------|

Solo

It's mainly an improvisation on the G major pentatonic scale. If you don't know the 
here it is below :

E||--------------------0-3-|
B||----------------0-3-----|
G||------------0-2---------|
D||--------0-2-------------|
A||----0-2-----------------|
E||--3---------------------|

Just mix the notes up.

I didn't tab out the solo because I believe that it is much more fun to improvise and 
create music than to copy the artist.

Have Fun !
Página 1 / 1

Letras e título
Acordes e artista

resetar configurações
OK