Cifra Club

Nosso Louco Amor

Gang 90

Cifra: Principal
exibições 5.041
Tom: E
(intro) C#m F#m C#m B7

( B )

E|---0-----0---------------   e|---------------------
B|-----4-----4-------------   B|--5-4----------------
G|-------4-----4-----------   G|------4--2-----------
D|-------------------------   D|---------------------
A|-------------------------   A|---------------------
E|-------------------------   E|---------------------

       E                  F#m                 A  Am               E
Nosso louco amor está em seu olhar quando o adeus vem nos acompanhar
         E                  F#m                A                 E
Sem perdão não há como aprender e errar Meu amor, vem me abandonar

E|-------------------------------------
B|------------------------0--~---------
G|------------------1--2---------------
D|---------1--2--4---------------------
A|--2--4-------------------------------
E|-------------------------------------

E
  Já foi assim
F#m
    mares do sul
      A             B9
entre jatos de luz, beleza sem dor
C         D             E
a vida sexual dos selvagens

E|------------------------------------
B|------------------------0--~-----
G|------------------1--2--------------
D|---------1--2--4---------------------
A|--2--4-------------------------------
E|------------------------------------

E
  Agora aqui
F#m
  passou a dor
    A                  B9
na rua a luz da cidade ilumina
C        D      E
 nosso louco amor

( C#m F#m C#m B7 )
(trecho cantado utilizando um vocoder)
Nosso louco amor é mais que um lance de dados,
não abolirá nosso caso

(repete)

Nosso louco amor
está em seu olhar
quando o adeus
vem nos acompanhar
Sem perdão não há
como aprender e errar
Meu amor,
vem me abandonar

Já foi assim
mares do sul
entre jatos de luz,
beleza sem dor
a vida sexual
dos selvagens
É bom saber
voltou a ser
na rua uma
estrela ilumina
nosso louco amor

(trecho cantado utilizando um vocoder)
Nosso louco amor é mais que um lance de dados,
não abolirá nosso caso
Acordes para:
    Colaboração e revisão:
    • Diego Martins

    0 comentários

      mostrar mais comentários

      Conseguiu tocar?

      0tocaram0ainda não

      Grave um vídeo tocando Nosso Louco Amor e mande pra gente!

      00:00 / 00:00
      outros vídeos desta música
      repetirqualidadeautomática
      Outro vídeos desta música
        00:00 / 00:00
        automática
        OK