Cifra Club

The Trick Is To Keep Breathing

Garbage

Tab de baixo: Principal
(Introdução/Verso)
G|---------------------------------------------------------------------
D|---------------------------------------------------------------------
A|--------------8-10------------8-10-----------------------------------
E|-8-8~----8-11------11~---8-11---------------------------------------- 2x

G|---------------------------------------------------------------------
D|---------------------------------------------------------------------
A|--------------8-10------------8-10-8~------8-10------------8-10------
E|-8-8~----8-11------11~---8-11---------8h11------8-11~-8-11-----------

(Refrão)

G|---------------------------------------------------------------------
D|---------------------------------------------------------------------
A|-10~------8-10---------------------------8----------------5----------
E|-----8/10------10/6-6-8/10-8-6--10--8/10---10-10--8~--6h8---6--------

"the trick is to keep breathing"
G|-----------------------------------------------------------------------
D|----------8-10-12~---------8-10-12~----------8-10-12---------8-10-12~--
A|------/10--------------/10----------8~--8/10---------8~-8/10-----------
E|-11~----------------11~------------------------------------------------ 2x

(Verso)

(Refrão)
00:00 / 00:00
Outros vídeos desta música
Repetir
Outros vídeos desta música
Composição de Garbage
Colaboração e revisão:
  • Guilherme Burzynski
222 exibições

0 comentários

Ver todos os comentários

Entre para oCifra Club PRO

Tenha acesso a benefícios exclusivos no App e no Site

  • Chega de anúncios

  • Prioridade de compra em lançamentos

  • Mais recursos no app do Afinador

  • Atendimento Prioritário

  • Descontos nos produtos Cifra Club

  • Ajude a produzir mais conteúdo

00:00 / 00:00

Cifra Club Pro

Aproveite o Cifra Club com benefícios exclusivos e sem anúncios
Cifra Club Pro
Aproveite o Cifra Club com benefícios exclusivos e sem anúncios
OK