Night I Called Old Man Out

Garth Brooks

Composição de: Garth Brooks / Kim Williams / Pat Alger
tom: D
[Intro] F#m

E|---------------------|------------------|----------------------------------|
B|---------------------|------------------|----------------------------------|
G|---r4--2--4--2-------|----2-------------|----------------------------------|
D|----------------4--2-|-4-----4~~~~~~~~--|----2---2---2----2/4~~~~~~~~~~----|
A|---------------------|------------------|-/4---4---4---2-------------------|
E|---------------------|------------------|----------------------------------|

E|---------------------|------------------|----------------------------------|
B|---------------------|------------------|----------------------------------|
G|--r4--2--4---2-------|----2-------------|----------------------------------|
D|---------------4--2--|--4----4~~~~~~----|-----2-----2----------------------|
A|---------------------|------------------|--4-----4-----2^r(2)--------------|
E|---------------------|------------------|-----------------------4---2~~~~--|

F#m
The dining room fell silent
          E
I can't believe what I just said
       Bm
I just told my dad he's full of it
      C#7
And I watched his face turn red
             F#m
Well, then I should've said, "I'm sorry"
      D
But I matched him shout for shout
           Bm
I can still hear that screen door slammin'
    C#7              F#m
The night I called him out

E|----------------------|----------------------------------------------------|
B|-------5--------------|----------------------------------------------------|
G|--4^------4^--r(4)-2--|---------------1------------------------------------|
D|----------------------|--4----2--4-----------------------------------------|
A|----------------------|----------------------------------------------------|
E|----------------------|----------------------------------------------------|

          A                   E   Bm                  F#m
He said, "Son, it's gonna hurt me more than it hurts you"

E|---------------------------------------------------------------------------|
B|---------------------------------------------------------------------------|
G|---------1----4-----4^-----------------------------------------------------|
D|----4----------------------------------------------------------------------|
A|---------------------------------------------------------------------------|
E|---------------------------------------------------------------------------|

        D                 E                  C#7
But somehow I couldn't help but have my doubts

E|-----------------|----------------------------------------------------------|
B|-----------------|----------------------------------------------------------|
G|--------------4--|----4-----4^-------r(4)-----------------------------------|
D|-------3---------|----------------------------------------------------------|
A|--4--------------|----------------------------------------------------------|
E|-----------------|----------------------------------------------------------|

           A             E             Bm                F#m
'Cause I'd seen my older brothers crawl back in the house

E|----------12---------------|-----------------------------------------------|
B|---12^-------12-r(12)--10--|-----------------------------------------------|
G|---------------------------|--11~~~~~~~------------------------------------|
D|---------------------------|-----------------------------------------------|
A|---------------------------|-----------------------------------------------|
E|---------------------------|-----------------------------------------------|

     D                   E         F#m
Each time they called the old man out

Fist to fist and eye to eye
Standin' toe to toe
He would've let me walk away
But I just would not let it go
Years of my frustration
Had lead me to this night
Now he'll pay for all the times that he's been right

F#m
It was over in a minute
       E
That's when I realized
Bm
The blood came from my mouth and nose
        C#7
But the tears came from my eyes
         F#m
And in a memory of that fateful night
  D
I know the greatest pain was his
              Bm             F#m
And I just pray some day I'm half the man he is

Just like my older brothers
crawled back in the house

     1              1
E|--12^----r(12)-------------------------------------------------------------|
B|-----------------12^--r(12)--10--12----------------------------------------|
G|--------------------------------------11~~~~~~~~~--------------------------|
D|---------------------------------------------------------------------------|
A|---------------------------------------------------------------------------|
E|---------------------------------------------------------------------------|

The night I called the old man out
Página 1 / 1

Letras e título
Acordes e artista

resetar configurações
OK