Cifra Club

Aprenda

The Dance Acoustic Lead And Tab

Garth Brooks

Cifra: Principal (violão e guitarra)
Já pensou em usar uma coleção de roupas do Cifra Club? Responda as perguntas abaixo e nos ajude nessa missão! →
tom: G
Intro 
 
   G                  C/G  G                 C/G 
e|-----------------3-----------------------3----------- 
b|-----------0----------1------------0---------1------- 
g|--------0-------------0---------0------------0------- 
d|-----0-----------------------0----------------------- 
a|----------------------------------------------------- 
e|--3-----------3-----------3-----------3-------------- 
 
 
  G             D     C/G   G 
e|----------------------------------------------------- 
b|-----------0---3-----1-----0------------------------- 
g|--------0---------0--------0------------------------- 
d|-----0---------4-----2-----0------------------------- 
a|---------------------------2------------------------- 
e|--3------------------------3------------------------- 
 
suggested accompaniment through the verse and chorus. 
(The chords aren't in order it is just the pickin for  
that chord when it is shown) 
 
      G                  C                D 
e|--------------3---------------------0--------2---2--- 
b|-------0----------------------1------------3--------- 
g|-----0-----------0----------0--------0---2----------2 
d|---0-----------------0----2--------------------0----- 
a|------------------------3--------3------------------- 
e|-3---------3----------------------------------------- 
 
pick these two a little bit faster 
  C/E                    D/F# 
e|------------------------------------------------------ 
b|---1--------1--------------3--------3--------------- 
g|------0--------0--------------2--------2------------ 
d|---------2--------2--------------0--------0--------- 
a|-0--------------------------------------------------- 
e|------------------------2---------------------------- 
 
   Bm               Bm                 
e|------------------------------------------------------ 
b|-----3-----3----------3-----3------------------------ 
g|-------4-----4----------4-----4---------------------- 
d|---------4-----4----------4-----4-------------------- 
a|--2----------------2---------------------------------- 
e|------------------------------------------------------ 
 
Verse 1: 
G                   C 
Looking back on the memory of  
             
D                              G                
The dance we shared 'neath the stars above  
            
         G               C 
For a moment all the world was right  
                   
           D                      C/E          D/F# 
How could I have known that you'd ever say goodbye  
 
Chorus: 
         
    C                      D                         
And now I'm glad I didn't know  
                                 
                     Bm                       C         D 
The way it all would end the way it all would go  
         
    C                        D             
Our lives are better left to chance I could have missed the  
 
Bm 
pain  
                  C    D   G 
But I'd of had to miss the dance  
 
Verse 2: 
 
Holding you I held everything  
For a moment wasn't I the king  
But if I'd only known how the king would fall  
Hey who's to say you know I might have chanced it all  
And now I'm glad I didn't know  
The way it all would end the way it all would go  
Our lives are better left to chance I could have missed the pain  
But I'd of had to miss the dance  
 
Bridge: 
        C                       D  
Yes my life is better left to chance 
                         Bm                     C  
I could have missed the pain but I'd of had to miss 
 D     G 
the   dance
Compositor não encontrado.
1.226 exibições
    • ½ Tom
    • A
    • Bb
    • B
    • C
    • Db
    • D
    • Eb
    • E
    • F
    • F#
    • G
    • Ab
  • Adicionar à lista

    0 comentários

    Ver todos os comentários

    Conseguiu tocar?

    0 Tocaram 0 Ainda não

    Grave um vídeo tocando The Dance Acoustic Lead And Tab e nos envie!

    00:00 / 00:00
    Outros vídeos desta música
    Repetir Qualidade Automático
    Outros vídeos desta música
    00:00 / 00:00
    Automático

    Cifra Club Pro

    Aproveite o Cifra Club com benefícios exclusivos e sem anúncios
    Cifra Club Pro
    Aproveite o Cifra Club com benefícios exclusivos e sem anúncios
    OK