Cifra Club

Isso é imortal

Gatinha Manhosa

Cifra: Principal (violão e guitarra)
tom: Ab
[Intro]  Ab

Ab                Eb             Fm
 Hoje eu sei que não sou mais feliz
Ab             Eb              Fm
 Eu não sei viver sem aquele amor
Ab         Eb          Fm
 E ando sozinho sem saber aonde ir
Ab          Eb         Fm
 Chamo seu nome mais ela não ouve

Bbm   Ab           Eb
 Não vou fugir de mim
Bbm       Ab        Eb
 Só vou amar até o fim

               Ab Eb    Fm
 E Isso é imortal meu amor
            Ab  Eb                Fm
 Então recomece, pensar um pouco mais
                Bbm Ab         Eb
 Então vamos viver um sonho a mais
                Bbm             Ab            Eb
 Eu só quero você e não vou querer ninguém jamais
             Ab Db Ab Db
 Isso é imortal

Ab                Eb             Fm
 Hoje eu sei que não sou mais feliz
Ab             Eb              Fm
 Eu não sei viver sem aquele amor
Ab         Eb          Fm
 E ando sozinho sem saber aonde ir
Ab          Eb         Fm
 Chamo seu nome mais ela não ouve

Bbm   Ab          Eb
 Não vou fugir de mim
Bbm       Ab        Eb
 Só vou amar até o fim

               Ab Eb    Fm
 E Isso é imortal meu amor
            Ab  Eb                Fm
 Então recomece, pensar um pouco mais
                Bbm Ab         Eb
 Então vamos viver um sonho a mais
                Bbm             Ab            Eb
 Eu só quero você e não vou querer ninguém jamais
             Ab
 Isso é imortal

[Solo]

   Bbm    Ab       Eb
E|--------------------------|
B|--------------------------|
G|-13b15r13-12b13r12-10-----|
D|----------------------13~-|
A|--------------------------|
E|--------------------------|

   Bbm    Ab             Eb
E|--------------------------------------|
B|--------------------------------------|
G|-13b15r13-12b13r12p10-12b13r12p10-----|
D|----------------------------------13~-|
A|--------------------------------------|
E|--------------------------------------|

                Bbm           Ab           Eb
E|--------------------------------------------------|
B|----13-11----------11-------------------11--------|
G|----------13-13b15----13b15-12b13r12-10-----------|
D|-13----------------------------------------13-13~-|
A|--------------------------------------------------|
E|--------------------------------------------------|

                Bbm            Ab             Eb
E|-----------------------------------------------------------|
B|----13-11-------------16b18r16-14-------------------16-16~-|
G|----------13-13b15-15-------------15b17r15-13-12-12--------|
D|-13--------------------------------------------------------|
A|-----------------------------------------------------------|
E|-----------------------------------------------------------|

               Ab Eb    Fm
 E Isso é imortal meu amor
            Ab  Eb                Fm
 Então recomece, pensar um pouco mais
                Bbm Ab         Eb
 Então vamos viver um sonho a mais
                Bbm             Ab            Eb
 Eu só quero você e não vou querer ninguém jamais

               Ab Eb    Fm
 E Isso é imortal meu amor
            Ab  Eb                Fm
 Então recomece, pensar um pouco mais
                Bbm Ab         Eb
 Então vamos viver um sonho a mais
                Bbm             Ab            Eb
 Eu só quero você e não vou querer ninguém jamais
             Ab
 Isso é imortal
00:00 / 00:00
Outros vídeos desta música
Repetir
Outros vídeos desta música
Composição de Berg Rabelo
Colaboração e revisão:
86.488 exibições
    • ½ Tom
    • A
    • Bb
    • B
    • C
    • Db
    • D
    • Eb
    • E
    • F
    • F#
    • G
    • Ab
  • Adicionar à lista

    0 comentários

    Ver todos os comentários

    Entre para oCifra Club PRO

    Tenha acesso a benefícios exclusivos no App e no Site

    • Chega de anúncios

    • Prioridade de compra em lançamentos

    • Mais recursos no app do Afinador

    • Atendimento Prioritário

    • Descontos nos produtos Cifra Club

    • Ajude a produzir mais conteúdo

    00:00 / 00:00

    Cifra Club Pro

    Aproveite o Cifra Club com benefícios exclusivos e sem anúncios
    Cifra Club Pro
    Aproveite o Cifra Club com benefícios exclusivos e sem anúncios
    OK