Cifra Club

Aprenda

See You Tonite

Gene Simmons

Tab de baixo: Principal
                           SEE YOU TONITE (Bassline)

Transcribed by Michael Raisey
*

Gtr I (E A D G) - 'Neil Jason'

 Intro                                  1st Verse
   a W        a W        a H.      Q      Q  E E Q  E E
|-6h7------|-4h5------|-6h7-----------||---------------|
|----------|----------|---------------||---------------|
|----------|----------|---------------||---------------|
|----------|----------|-----------7\--||-0----0-0----0-|


  Q  E E a E E E E   Q  E E Q  E E   Q  E E q  E E   Q  E E E E E E
|------------------|---------------|---------------|-----------------|
|------------------|---------------|---------------|-----------------|
|------------------|---------------|-----------5---|-5----5-----5----|
|-5----5-5h7-5-7-5-|-0----0-0----0-|-5----5-7------|--------5-7---7--|


  Q  E E E E E E   Q  E E e e E E   Q  E E Q  E E   Q  E E e e E E
|----------------|----------------|---------------|----------------|
|----------------|----------------|---------------|----------------|
|-5----5-----5---|-7----7-----5---|-7----7--------|-5----5-----5---|
|--------5-7---7-|--------7-7---7-|--------0--3-5-|--------5-5---5-|


  Q  E E e e E E   q  E Q  E E E   H    q  q    Q  E E e e E E   Q  E E e e E E  
|----------------|---------------|------------|----------------|----------------||
|----------------|---------------|------------|----------------|----------------||
|-5----5-----5---|-7--7------7---|------------|-5----5-----5---|-5----5-----5---||
|--------5-5---5-|------7------7-|-5----7--7--|--------5-5---5-|--------5-5---5-||


 2nd Verse
 Q  E E Q  E E   Q  E E E E E E   Q  E E Q  E E
|---------------|----------------|---------------|
|---------------|----------------|---------------|
|-7----7----7---|----------------|-7----7----7---|
|--------7----7-|-5----5-7-5-7-5-|--------7----7-|


  H    q  q    Q  E E e e E E    Q  E E e e E E   Q  E E e e E E
|------------|----------------||----------------|----------------|
|------------|----------------||----------------|----------------|
|------------|-5----5-----5---||-5----5-----5---|-7----7-----7---|
|-5----7--7--|--------5-5---5-||--------5-5---7-|--------7-7---7-|


  Q  E E E E E E   Q  E E e e E E   Q  E E e e E E   Q  E E e e E E
|----------------|----------------|----------------|----------------|
|----------------|----------------|----------------|----------------|
|-7----7---------|-5----5-----5---|-5----5-----5---|-7----7-----7---|
|--------7-7-0-5-|--------5-5---5-|--------5-5---5-|--------7-7---7-|


  H    q  q    Q  E E e e E E   Q.   E E E E E   Q  E E e e E E
|------------|----------------|----------------|----------------|
|------------|----------------|----------------|----------------|
|------------|-5----5-----5---|------------5---|-5----5-----5---|
|-5----7--7--|--------5-5---5-|-3------5h7---7-|--------5-5---5-|


                                                      Guitar Break 1
  Q.   E E E E E   Q  E E e e E E   Q  E E e e E E     Q  E E e e E E
|----------------|----------------|----------------||-----------------|
|----------------|----------------|----------------||o----------------|
|------------5---|-5----5-----5---|-5----5-----5---||o-7----7-----7---|
|-3------5h7---7-|--------5-5---5-|--------5-5---5-||---------7-7---7-|


  H    q  q      Q  E E e e E E   Q  E E e e E E   h    E E E E
|-------------||----------------|----------------|--------------|
|------------o||----------------|----------------|--------------|
|------------o||-5----5-----5---|-5----5-----5---|-7--------7---|
|-5----7--7---||--------5-5---5-|--------5-5---5-|------7-7---7-|


  q  E E E E E E     Q  E E e e E E     Q  E E E E E E   Q  E E E E E E
|----------------||------------------||----------------|----------------|
|----------------||o----------------o||----------------|----------------|
|-7----7---------||o-5----5-----5---o||-7----7---------|-7----7---------|
|--------0-0-5-7-||---------5-5---5--||--------0-0-3-5-|--------0-0-3-5-|


  Q  Q e e E E   Q  Q  e e E E   Q  Q  E E E E   Q.   E E E E E
|--------------|---------------|---------------|-----------------|
|--------------|---------------|---------------|-----------------|
|-5------------|-5-------------|-----------5---|-5----------5----|
|------0-0-5-7-|-------0-0-3-5-|-3-----5-7---7-|--------5h7---7--|


  Q  Q  E E e E   Q  Q  E E E E   Q  Q  E E  e  E   Q  Q  E E e E
|---------------|---------------|-----------------|---------------|
|---------------|---------------|-----------------|---------------|
|-5---------5---|-----------5---|-5----------5----|-5---------5---|
|-------5-5---5-|-3-----5h7---7-|-------5-5-----5-|-------5-5---5-|


  Guitar Break 2
               1.               2.
    H    H      H    E E E E     H    q  q    H    H
||------------|---------------||------------|----------|
||o-----------|--------------o||------------|----------|
||o-7---------|--------------o||------------|-5----5---|
||-------7----|-5----7-5-7-5--||-5----7--7--|----------|


 Out-Chorus
  H    E E E E   H    E E e E   Q  E  e  E E E E   Q  E e E E E E
|--------------|--------------|------------------|----------------|
|--------------|--------------|------------------|----------------|
|-5--------5---|-7--------7---|-7-----7----------|-5----5-----5---|
|------5-7---5-|------7-7---7-|----------0-0-3-5-|--------5-5---5-|


  Q  Q  E E E E   Q  Q  E E E E   Q  E E q  q    Q  E E E E E E
|---------------|---------------|--------------|----------------|
|---------------|---------------|--------------|----------------|
|-5---------5---|-7-------------|--------------|-5----5-----5---|
|-------5-5---5-|-------0-0-5---|-5----5-5--5--|--------5-5---5-|


  Q  Q  E E E E   Q  E  E  E E e E   Q  Q  E E E E   Q  Q.   Q.     W
|---------------|------------------|---------------|----7---------|------*|
|---------------|------------------|---------------|---------7----|------*|
|-----------5---|-5-----5------5---|-----------5---|-5------------|-5----*|
|-3-----5h7---7-|----------5-5---5-|-3-----5h7---7-|--------------|------*|


Duration Legend
---------------
+ - note tied to previous; . - note dotted; .. - note double dotted
Uncapitalized letters represent notes that are staccato (1/2 duration)
Irregular groupings are notated above the duration line
Duration letters will always appear directly above the note/fret number it represents the
duration for.  Duration letters with no fret number below them represent rests.  Multi-
bar rests are notated in the form Wxn, where n is the number of bars to rest for.  Low
melody durations appear below the staff

Tablature Legend
----------------
 h   - hammer-on
 p   - pull-off
 /\  - slide into or out of (from/to "nowhere")
 
Misc Legend
-----------
 |  - bar
||o - repeat start
o|| - repeat end
 :  - bar (freetime)
 &  - Coda


***************************************************************************************
* Generated using Power Tab Editor by Brad Larsen - http://* *
***************************************************************************************
Composição de Gene Simmons
427 exibições

0 comentários

Mostrar mais comentários

Conseguiu tocar?

0 Tocaram 0 Ainda não

Grave um vídeo tocando See You Tonite e mande pra gente!

00:00 / 00:00
outros vídeos desta música
repetir qualidade Automático
Outros vídeos desta música
00:00 / 00:00
Automático

Cifra Club Pro

Aproveite o Cifra Club com benefícios exclusivos e sem anúncios
7 dias grátis
Cifra Club Pro
Aproveite o Cifra Club com benefícios exclusivos e sem anúncios
7 dias grátis
OK