Untouchables

Generation X

UNTOUCHABLES

Taken from the Chrysalis album Anthology (2003)

Transcribed by: Damian Pamminger (TwitcheD*)

Standard tuning: E A D G

Intro
|-------|----------|
|-Pause-|----------|
|-------|----------|
|-------|-0--------|

Fig. 1
|----------------------------------------------------------------------|
|----------------------------------------------------------------------|
|-5-5-5-5-5-5-5-5------------------------------------------------------|
|------------------5-5-5-5-5-5-5-5-3-3-3-3-2-2-2-2-0-0-0-0-0-0-0-0-----|

Fig. 2a
|---------------------------------- |--------|----------------------------------------|
|---------------------------------- |-REPEAT-|----------------------------------------|
|---------------------------------- |--------|----------------------------------------|
|-0-0-0-0-0-0-0-0-5-5-5-5-5-5-5-5-|--------|-3-3-3-3-3-3-3-3-3-3-3-3-3-3-3-3-3-3------|

|--------------------------------|
|--------------------------------|
|--------------------------------|
|-3-3-3-3-3-3-3-3-3-3-3-3-3-3----|

Fig. 2b
|---------------------------------- |------------|-----------------------------------|
|---------------------------------- |--REPEAT--- |-----------------------------------|
|---------------------------------- |-three-more-|-----------------------------------|
|-0-0-0-0-0-0-0-0-5-5-5-5-5-5-5-5-|---times----|-3-3-3-3-3-3-3-3-3-3-3-3-3-3-3-3-----|

|-------------------------------------|
|-------------------------------------|
|-------------------------------------|
|-3-3-3-3-3-3-3-3-3-3-3-3-3-3-3-3-----|

Fig. 3
|-----------------------------------|----------|-------------------------------------|
|-----------------------------------|--REPEAT--|-------------------------------------|
|-3-3-3-3-3-3-3-3------------------|-two-more-|-5-5-5-5-5-5-5-5-5-5-5-5-5-5-5-5------|
|------------------3-3-3-3-3-3-3-3-|---times---|-------------------------------------|
Página 1 / 1

Letras e título
Acordes e artista

resetar configurações
OK