Cifra Club

No tengo amigos

Genitallica

Cifra: Principal (violão e guitarra)
tom: E

intro
E|-7------------------|---4--------------|--9-----11---12--|-7-----7-------|
B|-9------------------|---5--------------|--10-------------|-7-----7-------|
G|-8------------------|---6--------------|--11-------------|-9-----8-------|
D|-9------------------|---7--------------|----| R------------|-7-----7-------
5 --R-----------------|----R-------------|-----------------|-9-----9-------
E|--------------------|------------------|-----------------|--| R-----R------

Riff 1 - guitarra 1
E|-7------------------|---4--------------|--9--------------|-7-----7-------|
B|-9------------------|---5--------------|--10-------------|-7-----7-------|
G|-8------------------|---6--------------|--11-------------|-9-----8-------|
D|-9------------------|---7--------------|----| R------------|-7-----7-------
5 --R-----------------|----R-------------|-----------------|-9-----9-------
E|--------------------|------------------|-----------------|--| R-----R------

Riff 1 - guitarra 2
E|--------------------|------------------|------------------------|----------------|
B|--------------------|------------------|------------------------|----------------|
G|-9-9--9-9--9-9-9----|------------------|--11-11--11-11--11-11-11|----------------|
D|-9-9--9-9--9-9-9----|-7-7--7-7--7-7-7--|--11-11--11-11--11-11-11|-9-9--9-9--9-9-9|
A|-7-7--7-7--7-7-7----|-7-7--7-7--7-7-7--|--9--9---9--9---9--9--9-|-9-9--9-9--9-9-9|
E|--------------------|-5-5--5-5--5-5-5--|------------------------|-7-7--7-7--7-7-7|

E
 Hey,
A Maj7
 come here baby
F#m7
 I got...
B7
 I got everything you are looking for

Emaj7-A Maj7-F#m7-B7

E          A Maj7
 Soy un egoista
           F#m7
 soy un infeliz

 y no me importa
B7
 nadie mas que yo
E            A Maj7
 soy maravilloso
            F#m7
 soy encantador
                    B7
 y no sé porque yo nunca

 he sido el centro de atracción
E           A Maj7
 soy un presumido,
            F#m7
 soy un ganador
                B7
 soy lo que le falta

 al mundo para ser mejor

Riff 2
D|-9---9---9----|--7---7---7----|--4---4---4----|--2-----|--1---|
A|-9---9---9----|--7---7---7----|--4---4---4----|--2-----|--2---|
E|-7---7---7----|--5---5---5----|--2---2---2----|--0-----|--0---|

E
 No comparto, no convido
A
 No presto, no invito
F#m7                            B7
 ¿Que no entiendes lo que digo?

Riff 3

D|-9---9---9---9-|--9-9-9-|-7---7---7---7-|--7-7-7-|-4---4---4---4-|--4-4-4-|--2---|
A|-9---9---9---9-|--9-9-9-|-7---7---7---7-|--7-7-7-|-4---4---4---4-|--4-4-4-|--2---|
E|-7---7---7---7-|--9-9-7-|-5---5---5---5-|--5-5-5-|-2---2---2---2-|--2-2-2-|--0---|

D|-4---4---4---4-|--4-4-4-|--2---|
A|-4---4---4---4-|--4-4-4-|--2---|
E|-2---2---2---2-|--2-2-2-|--0---|

Emaj7
 No tengo amigos,
A Maj7
 no tengo amigos
F#m7               B7
 y nadie quiere estar conmigo
(2x)

Riff1 - guitarra 1
Riff1 - guitarra 2

Emaj7
 Pregunta lo que quieras
A Maj7
 yo te responderé
F#m7              B7
 yo nunca me equivoco

 porque todo yo lo sé

     -Aca es la misma cosa

y yo soy superior
y yo lo tengo todo
y con todo lo que tengo
a mi lado estarás
00:00 / 00:00
Outros vídeos desta música
Repetir
Outros vídeos desta música
Composição de Genitallica
16 exibições
    • ½ Tom
    • A
    • Bb
    • B
    • C
    • Db
    • D
    • Eb
    • E
    • F
    • F#
    • G
    • Ab
  • Adicionar à lista

    0 comentários

    Ver todos os comentários

    Entre para oCifra Club PRO

    Tenha acesso a benefícios exclusivos no App e no Site

    • Chega de anúncios

    • Prioridade de compra em lançamentos

    • Mais recursos no app do Afinador

    • Atendimento Prioritário

    • Descontos nos produtos Cifra Club

    • Ajude a produzir mais conteúdo

    00:00 / 00:00

    Cifra Club Pro

    Aproveite o Cifra Club com benefícios exclusivos e sem anúncios
    Cifra Club Pro
    Aproveite o Cifra Club com benefícios exclusivos e sem anúncios
    OK