Cifra Club

My Sweet Lord

George Harrison

Cifra: Principal (violão e guitarra)
exibições 382.423
Tom: E (forma dos acordes no tom de D) Capotraste na 2ª casa
Primeira Parte:
Em A7

Solo Primeira Parte:
E|-16--14\12--12/14--12\9--9~------------------------
B|---------------------------------------------------
G|---------------------------------------------------
D|---------------------------------------------------
A|---------------------------------------------------
E|---------------------------------------------------

E|-14/16--14\12--12/14--12----------------12--------
B|--------------------------12/14--12/14-----14\12~--
G|---------------------------------------------------
D|---------------------------------------------------
A|---------------------------------------------------
E|---------------------------------------------------

E|-14/16--14\12--13/10--10/7--7/2--------------------
B|---------------------------------------------------
G|---------------------------------------------------
D|---------------------------------------------------
A|---------------------------------------------------
E|---------------------------------------------------

E|-2/7/10\9--9--9\7----------------------------------
B|------------------9\7~-----------------------------
G|---------------------------------------------------
D|---------------------------------------------------
A|---------------------------------------------------
E|---------------------------------------------------

Base Solo:
D Bm7(11) D Bm7(11)
D D#º Em A7

          Em  A7
My sweet Lord
        Em  A7
Hm, my Lord
          Em  A7
My Sweet Lord

                  D      Bm7(11)
I really want to see you
                D          Bm7(11)
Really want to be with you
                  D
I really want to see you, Lord
        D#º               Em  A7
But it takes so long, my Lord

          Em  A7
My sweet Lord
        Em  A7
Hm, my Lord
        Em  A7
Oh, my Lord

                   D      Bm7(11)
I really want to know you
                D          Bm7(11)
Really want to go with you
                   D
I really want to show you Lord
         D#º                 Em
That it won't take long, my Lord
       A7
(hallelujah)

          Em         A7
My sweet Lord (hallelujah)
        Em         A7
Hm, my Lord (hallelujah)
          Em         A7
My sweet Lord (hallelujah)

                  D
I really want to see you
                  D7
I really want to see you

Segunda Parte:
                  B7
I really want to see you Lord
                  E
I really want to see you Lord
                        F#m7(11)/C#
But it takes so long, my Lord
       B4
(hallelujah)

        F#m7(11)/C#  B4
Oh, my Lord   (hallelujah)
          F#m7(11)/C#  B4
My sweet Lord   (hallelujah)
        F#m7(11)/C#  B4
Oh! My Lord   (hallelujah)

                  E             C#m
I really want to see you (hallelujah)
                E                 C#m
Really want to be with you (hallelujah)
                  E
I really want to see you Lord(AhhhAhhhh)
                        F#m7(11)/C#
But it takes so long, my Lord
       B4
(hallelujah)

          F#m7(11)/C#  B4
My sweet Lord   (hallelujah)
        F#m7(11)/C# B4
Oh, my Lord  (hallelujah)
          F#m7(11)/C#  B4
My Sweet Lord   (hallelujah)

Solo Segunda Parte:
E|-16/18--16\14--14/16--14\11--11~-------------------
B|---------------------------------------------------
G|---------------------------------------------------
D|---------------------------------------------------
A|---------------------------------------------------
E|---------------------------------------------------

E|-16/18--16\14--14/16--14----------------14---------
B|--------------------------14/16--14/16-----16\14~--
G|---------------------------------------------------
D|---------------------------------------------------
A|---------------------------------------------------
E|---------------------------------------------------

E|-16/18--16\14--15/12--12/9--9/4--------------------
B|---------------------------------------------------
G|---------------------------------------------------
D|---------------------------------------------------
A|---------------------------------------------------
E|---------------------------------------------------

E|-4/9/12\11--11--11\9-------------------------------
B|----------------------11\9~------------------------
G|---------------------------------------------------
D|---------------------------------------------------
A|---------------------------------------------------
E|---------------------------------------------------

Base:
E C#m E C#m
E  F#m7(11)/C#  B4

          F#m7(11)/C#  B4
My Sweet Lord  (hare krishna)
        F#m7(11)/C#  B4
Oh, my Lord  (hare krishna)
          F#m7(11)/C#    B4
My sweet Lord (krishna krishna)
        F#m7(11)/C#  B4
Oh, my Lord   (hare hare)

                  E             C#m
I really want to see you (hare Rama)
                E                 C#m
Really want to be with you (hare Rama)
                  E
I really want to see you, Lord (AhhhAhhhh)
                        F#m7(11)/C#
But it takes so long, my Lord
       B4
(hallelujah)

          F#m7(11)/C#  B4
My sweet Lord   (hallelujah)
        F#m7(11)/C#  B4
Oh, my Lord  (hare krishna)
          F#m7(11)/C#  B4
My sweet Lord  (hare krishna)
        F#m7(11)/C#    B4
Oh! My Lord (krishna krishna)
        F#m7(11)/C#  B4
Oh, My Lord   (hare hare)
        F#m7(11)/C#   B4
Oh, my Lord! (Gurur Brahma)
          F#m7(11)/C#  B4
My sweet Lord! (Gurur Vishnu)
        F#m7(11)/C#  B4
Oh, my Lord  (Gurur Devo)
          F#m7(11)/C#  B4
My sweet Lord  (Maheshwara)
        F#m7(11)/C#      B4
Oh, my Lord! (Gurur Sakshaat)
          F#m7(11)/C#  B4
My sweet Lord   (Parabrahma)
        F#m7(11)/C#     B4
Oh, my Lord (Tasmayi Shree)
          F#m7(11)/C#  B4
My sweet Lord (Guruve Namah)
        F#m7(11)/C#  B4
Oh! My Lord   (hare Rama)
       F#m7(11)/C#  B4
Oh my Lord  (hare krishna)
        F#m7(11)/C#  B4
Oh! My Lord  (hare krishna)

Solo Final:
E|-16/18--16\14--14/16--14\11--11~-------------------
B|---------------------------------------------------
G|---------------------------------------------------
D|---------------------------------------------------
A|---------------------------------------------------
E|---------------------------------------------------

E|16/18--16\14--14/16--14----------------14----------
B|-------------------------14/16--14/16-----16\14~---
G|---------------------------------------------------
D|---------------------------------------------------
A|---------------------------------------------------
E|---------------------------------------------------

E|16/18--16\14--14/16--14----------------14----------
B|-------------------------14/16--14/16-----16\14-14~
G|---------------------------------------------------
D|---------------------------------------------------
A|---------------------------------------------------
E|---------------------------------------------------

Base:
E C#m E C#m E C#m E
Acordes para:
    Composição: George Harrison Colaboração e revisão:

    0 comentários

    mostrar mais comentários

    Conseguiu tocar?

    37 tocaram 1 ainda não

    Grave um vídeo tocando My Sweet Lord e mande pra gente!

    00:00 / 00:00
    outros vídeos desta música
    repetir qualidade Automático
    Outros vídeos desta música
    00:00 / 00:00
    Automático
    Capítulos
    • Início
    • Dicas Iniciais
    • Tocando a música
    • Acordes da Introdução e Primeira Parte
    • Tocando Introdução e Primeira Parte
    • Ensinando ritmo da música
    • Ensinando Solo da Primeira Parte (Slide)
    • Acordes da Segunda Parte
    • Tocando Segunda Parte
    • Ensinando Segunda Parte (Slide)
    • Ensinando Final (Slide)
    • Encerramento
    OK