Cifra Club

Aprenda

Última Cerveja

George Henrique e Rodrigo

Cifra: Principal (violão e guitarra)
Tom: G
[Intro] G9  A9  F#m  Bm

[Primeira Parte]

 G9                     A9
Tô me despedindo dessa mesa
                 F#m
Foi a última cerveja 
                       Bm
Que eu bebi por causa de você
 G9                        A9
Todo o meu motivo pra tristeza
                 F#m
Tá ficando na comanda 
                     Bm
Que o garçom acabou de trazer

[Pré-Refrão]

 G9                                                                                 
Foi a conta mais salgada
 A9
Mais doída e mais pesada
F#m                     Bm
E o coração teve que pagar
 G9                    
Não teve parcelamento 
 A9
Paguei com arrependimento
 F#m                   Bm
Demorou mas consegui quitar

[Refrão]

                    G9
Essa é a última cerveja 
                   A9
Que eu bebo por você
            F#m
A última comanda que eu paguei 
            Bm
Pra tentar te esquecer
              G9
Todo aquele amor 
                         A9
Que eu juntei só pra te dar
                 F#m
Pode guardar o troco 
                    Bm
E usar quando precisar

                    G9
Essa é a última cerveja 
                   A9
Que eu bebo por você
            F#m
A última comanda que eu paguei 
            Bm
Pra tentar te esquecer
              G9
Todo aquele amor 
                         A9
Que eu juntei só pra te dar
                 F#m
Pode guardar o troco 
                    Bm
E usar quando precisar

             G9
Se bater saudade 
          A9
Assume o meu lugar 
              Bm
Nos bares da cidade
             G9
Se bater saudade 
          A9
Assume o meu lugar 
                Bm
Nos bares da cidade

[Solo] G9  A9  F#m  Bm 
       G9  A9  F#m  Bm 

(capotraste na 1ª casa)

E|------------------------------------------|
B|------------------------------------------|
G|-4---4-4---4-4h6~---/6-6p-4~--------------|
D|---------6--------------------------------|
A|------------------------------------------|
E|------------------------------------------|

E|------------------------------------------|
B|-----5p4----------------------------------|
G|---------6p4-4---4---4-4h6-6p4------------|
D|-4/6-----------6---6-----------6~---------|
A|------------------------------------------|
E|------------------------------------------|

E|------------------------------------------|
B|-7/9-9-----7---4-6---2-4-2h4p2------------|
G|---------9---------------------4----------|
D|-------9-----6-----4-------------4--------|
A|------------------------------------------|
E|------------------------------------------|

E|---------7-4~-----------------------------|
B|-----5-7--------\7-5-4-5------------------|
G|-4/6---------------------6~---------------|
D|------------------------------------------|
A|------------------------------------------|
E|------------------------------------------|

[Primeira Parte]

 G9                     A9
Tô me despedindo dessa mesa
                 F#m
Foi a última cerveja 
                       Bm
Que eu bebi por causa de você
 G9                        A9
Todo o meu motivo pra tristeza
                 F#m
Tá ficando na comanda 
                     Bm
Que o garçom acabou de trazer

[Pré-Refrão]

 G9                                                                                 
Foi a conta mais salgada
 A9
Mais doída e mais pesada
F#m                     Bm
E o coração teve que pagar
 G9                    
Não teve parcelamento 
 A9
Paguei com arrependimento
 F#m                   Bm
Demorou mas consegui quitar

[Refrão]

                    G9
Essa é a última cerveja 
                   A9
Que eu bebo por você
            F#m
A última comanda que eu paguei 
            Bm
Pra tentar te esquecer
              G9
Todo aquele amor 
                         A9
Que eu juntei só pra te dar
                 F#m
Pode guardar o troco 
                    Bm
E usar quando precisar

                    G9
Essa é a última cerveja 
                   A9
Que eu bebo por você
            F#m
A última comanda que eu paguei 
            Bm
Pra tentar te esquecer
              G9
Todo aquele amor 
                         A9
Que eu juntei só pra te dar
                 F#m
Pode guardar o troco 
                    Bm
E usar quando precisar

             G9
Se bater saudade 
          A9
Assume o meu lugar 
              Bm
Nos bares da cidade
             G9
Se bater saudade 
          A9
Assume o meu lugar 
              Bm
Nos bares da cidade
Composição de George Henrique
Colaboração e revisão:
  • Lucas Kappaun
  • Elivelton Felipe
1.915 exibições
    • ½ Tom
    • A
    • Bb
    • B
    • C
    • Db
    • D
    • Eb
    • E
    • F
    • F#
    • G
    • Ab
  • Adicionar à lista

    0 comentários

    Mostrar mais comentários

    Conseguiu tocar?

    1 Tocaram 0 Ainda não

    Grave um vídeo tocando Última Cerveja e mande pra gente!

    00:00 / 00:00
    outros vídeos desta música
    repetir qualidade Automático
    Outros vídeos desta música
    00:00 / 00:00
    Automático

    Cifra Club Pro

    Aproveite o Cifra Club com benefícios exclusivos e sem anúncios
    7 dias grátis
    Cifra Club Pro
    Aproveite o Cifra Club com benefícios exclusivos e sem anúncios
    7 dias grátis
    OK