Cifra Club

Mandamentos Black

Gerson King Combo

Cifra: Principal (violão e guitarra)
tom: C
Swing por trás da melodia

E|--10-10-10-x-x-10-x-x-10--12--10--------------|--10-10-10-x-x-10-x-x-10--12--10---------------|
B|--10-10-10-x-x-10-x-x-10--12--10--------------|--10-10-10-x-x-10-x-x-10--12--10-----------10--|
G|--10-10-10-x-x-10-x-x-10--12--10--10----------|--10-10-10-x-x-10-x-x-10--12--10---------10----|
D|--10-10-10-x-x-10-x-x-10------10----12p10-12--|--10-10-10-x-x-10-x-x-10--12--10---10h12-------|
A|----------------------------------------------|-----------------------------------------------|
E|----------------------------------------------|-----------------------------------------------|

Brother!!!
Assuma sua mente,brother!
E chegue a uma poderosa conclusão de que os blacks não
querem ofender a ninguém, brother!
O que nós queremos é dançar! Dançar,dançar e curtir
muito som.
Não sei se estou me fazendo entender.
O certo,é seguir os mandamentos blacks, que são,baby:
Dançar,como dança um black!
Amar,como ama um black!
Andar,como anda um black!
Usar, sempre o cumprimento black!
Falar,como fala um black!

   Bm   G   Am          Am7/G  Am    Cm7/Bb     Bb4(6) Cm7/Bb
 
E|--7--3--5--5--5--5--8--5--5--5--|--8--8--8--8--12--8--8--8---|
B|--7--3--5--5--5--5--5--5--5--5--|--8--8--8--8--8---8--8--8---|
G|--7--4--5--5--5--5--5--5--5--5--|--8--8--8--8--8---8--8--8---|
D|--9--5--7--7--7--7--7--7--5--7--|--8--8--8--8--8---8--8--8---|
A|--9-----------------------------|----------------------------|
E|--7-----------------------------|----------------------------|

E eu te amo,brother!!

E|--10-10-10-x-x-10-x-x-10--12--10--------------|--10-10-10-x-x-10-x-x-10--12--10---------------|
B|--10-10-10-x-x-10-x-x-10--12--10--------------|--10-10-10-x-x-10-x-x-10--12--10-----------10--|
G|--10-10-10-x-x-10-x-x-10--12--10--10----------|--10-10-10-x-x-10-x-x-10--12--10---------10----|
D|--10-10-10-x-x-10-x-x-10------10----12p10-12--|--10-10-10-x-x-10-x-x-10--12--10---10h12-------|
A|----------------------------------------------|-----------------------------------------------|
E|----------------------------------------------|-----------------------------------------------|

Viver,sempre na onda black!
Ter,orgulho de ser black!
Curtir o amor de outro black!
Saber,saber que a cor branca,brother é a cor da
bandeira da paz, da pureza e esses são os pontos de
partida para toda a coisa boa,brother!
Divina razão pela qual amo vc tbm, brother!

   Bm   G   Am          Am7/G  Am    Cm7/Bb     Bb4(6) Cm7/Bb
 
E|--7--3--5--5--5--5--8--5--5--5--|--8--8--8--8--12--8--8--8---|
B|--7--3--5--5--5--5--5--5--5--5--|--8--8--8--8--8---8--8--8---|
G|--7--4--5--5--5--5--5--5--5--5--|--8--8--8--8--8---8--8--8---|
D|--9--5--7--7--7--7--7--7--5--7--|--8--8--8--8--8---8--8--8---|
A|--9-----------------------------|----------------------------|
E|--7-----------------------------|----------------------------|
Eu te amo brother!!

Apenas (Percursão)

E|--10-10-10-x-x-10-x-x-10--12--10--------------|--10-10-10-x-x-10-x-x-10--12--10---------------|
B|--10-10-10-x-x-10-x-x-10--12--10--------------|--10-10-10-x-x-10-x-x-10--12--10-----------10--|
G|--10-10-10-x-x-10-x-x-10--12--10--10----------|--10-10-10-x-x-10-x-x-10--12--10---------10----|
D|--10-10-10-x-x-10-x-x-10------10----12p10-12--|--10-10-10-x-x-10-x-x-10--12--10---10h12-------|
A|----------------------------------------------|-----------------------------------------------|
E|----------------------------------------------|-----------------------------------------------|

E|--7--3--5--5--5--5--8--5--5--5--|--8--8--8--8--12--8--8--8---|
B|--7--3--5--5--5--5--5--5--5--5--|--8--8--8--8--8---8--8--8---|
G|--7--4--5--5--5--5--5--5--5--5--|--8--8--8--8--8---8--8--8---|
D|--9--5--7--7--7--7--7--7--5--7--|--8--8--8--8--8---8--8--8---|
A|--9-----------------------------|----------------------------|
E|--7-----------------------------|----------------------------|
E eu te amo brother!!!
00:00 / 00:00
Outros vídeos desta música
Repetir
Outros vídeos desta música
Composição de Augusto Cesar / Gerson King Combo / Pedrinho Da Luz
Colaboração e revisão:
  • Gilson Feitosa
574 exibições
    • ½ Tom
    • A
    • Bb
    • B
    • C
    • Db
    • D
    • Eb
    • E
    • F
    • F#
    • G
    • Ab
  • Adicionar à lista

    0 comentários

    Ver todos os comentários

    Conseguiu tocar?

    0 Tocaram 0 Ainda não

    Grave um vídeo tocando Mandamentos Black e nos envie!

    00:00 / 00:00

    Cifra Club Pro

    Aproveite o Cifra Club com benefícios exclusivos e sem anúncios
    Cifra Club Pro
    Aproveite o Cifra Club com benefícios exclusivos e sem anúncios
    OK