Cifra Club

Dia de Sol

Gerson Rufino

Cifra: Principal
exibições 400.807
Tom: F#
[Intro] F#  C#  B  F#  D#m  G#m  C#  B  F#  B/F#  F#  B/F#

               F#    D#m                   G#m    C#   B               F#                       B        F#
E|---------------------------------------------------------------------------6/7p6----------------------2--|
B|--3/777-6-4-------------------------------------------------------4-6------------7--------------------2--|
G|------------6-----3-----3-4/6-4-3-3----------3-4-3----------3-4-6------------------6--------7/8/7-----3--|
D|--------------4h6----4h6------------6-4-6--6-------6-6--4/6--------------------------7/8----8/10/8----4--|
A|------------------------------------------------------------------------------------------------------4--|
E|------------------------------------------------------------------------------------------------------2--|
                          
               F#
Eu andei sem destino, perdi a razão
                                C#
Na estrada da vida eu fui na contra mão
               G#m       G#m/F#   C#/F
Mergulhei de cabeça no abismo sem fim
            B  C#               F#   B/F#
Loucura e tristeza eram partes de mim                     

              F#
No terrível espinho do pecado eu pisei
                                     C#
A ponte entre a vida e a morte eu cruzei
                G#m
No outro lado eu vi meus pedaços no chão
             B        F#   F#7
Minha alma vagava na escuridão                   

              B
Das garras da morte o Senhor me arrancou
              F#                        D#m
Me mostrou a verdade que eu nunca quis ver
    G#m            C#               F#
Acordei de um pesadelo e voltei a viver             

            C#
Eu hoje estou bem, mas já estive mal
            B
Sou dia de sol, mas já fui temporal
               F#                                C#      F#/C#   C#
Fui barco a deriva, fui noite sem lua, verão sem calor
               C#
Hoje eu sou verdade, mas já fui engano
                B
Já fui fonte seca, Hoje eu sou um oceano
         F#               C#              F#
A alma ferida, coração quebrado, Jesus consertou

[Solo]

                     G#m                    C#                      F#         B      F#
E|---------------------------------------------------------------------|
B|---------------------------------------------------------------------|
G|--------3------3/4----3----3b4r3-------------------------------------|
D|--4--6----6--4------6-------------6--4--3-----------6b8r6---4---4----|
A|----------------------------------------------4--4-------------------|
E|---------------------------------------------------------------------|

                 F#
No terrível espinho
Acordes para:
    Colaboração e revisão:

    0 comentários

      mostrar mais comentários

      Conseguiu tocar?

      12tocaram1ainda não

      Grave um vídeo tocando Dia de Sol e mande pra gente!

      00:00 / 00:00
      outros vídeos desta música
      repetirqualidadeautomática
      Outro vídeos desta música
        00:00 / 00:00
        automática
        OK