Cifra Club

Menina da Loja

Gian e Giovani

Cifra: Principal (violão e guitarra)
tom: A
 [Intro]      Eb    F       Dm    Bb     Eb    F        Gm    D
E|--------------------|------------|------------|--------------|
B|--------------3-1---|-------1----|-------3-1--|--------------|
G|--3-2-0-----0-------|-----2---3--|-----0------|---2-3-2------|
D|--------0-1---------|-0-3--------|-0-1--------|-5-------5-4--|
A|--------------------|------------|------------|--------------|
E|--------------------|------------|------------|--------------|

                  Gm
São seis horas da tarde
Pôr do sol vai caindo
                Cm
O movimento não cessa
              F7
Pelo céu da cidade uma estrela surgindo
                Gm
E todo mundo com pressa


Paciente eu espero do outro lado da rua
           Cm
Olhando pra ela através da vitrine
               Eb
Essa moça tão linda nem sequer imagina
         D                 D4  D
Que já ganhou meu coração


              Gm
Tão menina mulher vai soltando os cabelos
             Cm
Lentamente retoca o seu batom
               F7
E eu parado de pé ensaiando palavras
            Gm
Segurando uma caixa de bom bom
Despede do pessoal ao sair dá um tchau
            Cm
Eu fico ansioso, suando paixão
              Eb
Não consigo falar
Deixo ela passar
           D                Am D Am D
Lá vai meu sonho pela multidão


G              Bm      Dm           G           C
Essa menina da loja entrou na minha vida sem saber
Cm                D    Am  D
Ah esse amor me sufo---ca
Am         D          G     D
Mas cadê coragem pra dizer?
G              Bm
Essa menina da loja
Dm          G           C
Ah como eu queria convidar
        Cm               G/B         Em
Pra um chopp um cinema, sair desse dilema
  Am         D          Gm
E todo meu amor lhe revelar!!!

            Eb    F       Dm    Bb     Eb    F        Gm    D
E|--------------------|------------|------------|--------------|
B|--------------3-1---|-------1----|-------3-1--|--------------|
G|--3-2-0-----0-------|-----2---3--|-----0------|---2-3-2------|
D|--------0-1---------|-0-3--------|-0-1--------|-5-------5-4--|
A|--------------------|------------|------------|--------------|
E|--------------------|------------|------------|--------------|

Tão menina mulher
00:00 / 00:00
Outros vídeos desta música
Repetir
Outros vídeos desta música
Compositor não encontrado.
Colaboração e revisão:
  • Amanda Oliva
  • Suênio Avelino
25.768 exibições
    • ½ Tom
    • A
    • Bb
    • B
    • C
    • Db
    • D
    • Eb
    • E
    • F
    • F#
    • G
    • Ab
  • Adicionar à lista

    0 comentários

    Ver todos os comentários

    Entre para oCifra Club PRO

    Tenha acesso a benefícios exclusivos no App e no Site

    • Chega de anúncios

    • Prioridade de compra em lançamentos

    • Mais recursos no app do Afinador

    • Atendimento Prioritário

    • Descontos nos produtos Cifra Club

    • Ajude a produzir mais conteúdo

    00:00 / 00:00

    Cifra Club Pro

    Aproveite o Cifra Club com benefícios exclusivos e sem anúncios
    Cifra Club Pro
    Aproveite o Cifra Club com benefícios exclusivos e sem anúncios
    OK