Cifra Club

Aprenda

Derramar Meu Louvor

Gil Monteiro

Cifra: Principal (violão e guitarra)
tom: G
[Intro] G  Bm7(11)  C

    G               Bm7(11)           C
E|----------------------------------------------------|
B|----------------3---------------0-------------------|
G|--4p2-4p2-4p2-4---2p0-2p0-2p0-2-----0-----0---------|
D|----------------------------------2---2h4---2h4-2-0-|
A|------------------2-----------------3-----3-----3---|
E|--3-------------------------------------------------|
 
[Primeira Parte] G  Bm7  C

    G       Bm7   C
E|----------------------------------|
B|------------0---------------------|
G|--0---0h2-2---2-0-----0-0h2-------|
D|--0-0-------------2h4-------2h4-2-|
A|----------2-----3-----3-----3-----|
E|--3-------------------------------|

G                         Bm7                           C
Eu juntei meu coração em cada história que um dia eu vivi
G                         Bm7                      C
Arrisquei chegar aqui sem medo de me revelar para ti

Em      D     C
Eu não sou alguém 
                D
Que mereça tua graça
    Em     D      C
Mas só eu sei tão bem
         C  
Ninguém mais poderá 
     G   C
Me salvar

G
Eu elevo a minha voz
   Bm7(11)
E venho com essa canção 
     C
Derramar meu louvor
     C          D
Derramar meu louvor

   G
O pouco que eu venho dar 
   Bm7(11)
É tudo que eu tenho em mim
       C
Eu te amo, senhor
       C       
Eu te amo senhor

( G  Bm7(11)  C  )

G                       Bm7(11)                     C
Tanto tempo esperei a chance de um dia vir te encontrar
G                       Bm7(11)                         C
Aos teus pés vim ofertar as lágrimas de quem se arrependeu

Em      D       C
Eu guardei pra ti
              C
O perfume da vida 
   Em     D     C
Que eu jamais usei
         C       
Pois ninguém me amou 
         G   C
Tanto assim

G
Eu elevo a minha voz
   Bm7(11)
E venho com essa canção 
     C
Derramar meu louvor
     C          D
Derramar meu louvor

   G
O pouco que eu venho dar 
   Bm7(11)
É tudo que eu tenho em mim
       C
Eu te amo, senhor
       C       D
Eu te amo senhor

[Solo] G  C  Em  D

    G          C           Em          D
E|-7-----5-7---7-----5-7---7-----5-7---5---------5---|
B|---8-------8---8-------8---8-------8---7---7-8-----|
G|-----7-----------7-----------7-----------7---------|
D|---------------------------------------------------|
A|---------------------------------------------------|
E|---------------------------------------------------|

C                     D
Só quem muito perdoou entendeu o que é amar
C                       Em                 D
Quem na vida muito amou aprendeu a se entregar
C                 D
Tua morte perdoou todo mal que havia em mim
C                     Em                 D
Tua entrega revelou o grande amor que tu tens por mim

G
Eu elevo a minha voz
   Bm7(11)
E venho com essa canção 
     C
Derramar meu louvor
     C          D
Derramar meu louvor

   G
O pouco que eu venho dar 
   Bm7(11)
É tudo que eu tenho em mim
       C
Eu te amo, senhor
       C       D
Eu te amo senhor
Composição de Gil Monteiro
Colaboração e revisão:
  • João Pigatto
  • Dudde
  • Leonardo Apolinário
11.259 exibições
    • ½ Tom
    • A
    • Bb
    • B
    • C
    • Db
    • D
    • Eb
    • E
    • F
    • F#
    • G
    • Ab
  • Adicionar à lista

    0 comentários

    Ver todos os comentários
    00:00 / 00:00
    Outros vídeos desta música
    Repetir Qualidade Automático
    Outros vídeos desta música
    00:00 / 00:00
    Automático

    Cifra Club Pro

    Aproveite o Cifra Club com benefícios exclusivos e sem anúncios
    Cifra Club Pro
    Aproveite o Cifra Club com benefícios exclusivos e sem anúncios
    OK